Oops, an error
Loading. Please wait.

Test Drive tab

version 1
version 1

Whole song

19,392 views 54 this week
4 commentsread comments
1 2 3 4 5
x 5
add to favorites
×
Save as Personal and add changes to this tab that will be seen only by you. Learn more ›
×
You can save this tab as Personal to edit and correct it or add notes. All changes will be seen only by you. Learn more »
launch autoscroll
font size
0
reset
how to read this tab
guitar tuner
edit
Autoscroll
slow
fast
+/-
esc
set tempo
stop
-----------------------------------------------------------------
TEST DRIVE - John Powell (Composer - How to Train Your Dragon Soundtrack)
-----------------------------------------------------------------
Tabbed by: Eggingarde

Tuning: Standard (EADGBe)

Note: This is a complicated song for a single guitar tab. This is my first tab and the
counting & timing is complicated. I suggest you listen to the song to get it down properly.
I have split the song into parts to help with repeats later in the song.

*Note: There is no capo for the first part of the song, but at the key change (see: 
breakdown) I put a capo on the 2nd fret.)


[Intro]

e|-----------------|----------------|
B|-----------------|--------------0-|
G|-2---------------|----------------|
D|-0---------------|----------------|
A|-0---------------|----------------|
E|-----------------|----------------|


[Part 1]

e|-----------------|-----------------| ON THIRD TIME THROUGH-------|
B|-3-0-3-5-2-0-2-3-|-0---------------|-0---------------------------|
G|-----------------|---2-2-0-0-------|---2-2-0-0-------------------|
D|-----------------|-----------4-2-0-|-----------4-4-2-------------|
A|-----------------|-----------------|-----------------------------|
E|-----------------|-----------------|-----------------------------|


[Part 2]

e|-----------------|-----------------|-----------------|------------|
B|-7-------8-------|-5---8---7-------|----7-8----------|-5---8-7-7--|
G|-----------------|-----------------|-----------------|------------|
D|-----------------|-----------------|-----------------|------------|
A|-----------------|-----------------|-----------------|------------|
E|-----------------|-----------------|-----------------|------------|


[Part 3]

e|-------------------|-------------------|
B|----12---12----14p-|-14------10-7------|
G|-------------------|-------------------|
D|-------------------|-------------------|
A|-------------------|-------------------|
E|-------------------|-------------------|


[Part 4]

e|-----------------|----------------|-----------------|-------------|
B|-3------3--------|-5------7-7-----|--------7---10---|-5---7-7-----|
G|-----------------|----------------|----4------------|-------------|
D|-----------------|----------------|-----------------|-------------|
A|-----------------|----------------|-----------------|-------------|
E|-----------------|----------------|-----------------|-------------|
Part 4 cont.                           [Part 5]
e|--------------------|---------------(---|------------------|--------)|
B|----12-12-10-7----7-|-5-5---5-7-0---(-0-|-2-3-----5-3-2-0--|-0------)|
G|--------------------|---------------(---|----------------2-|--------)|
D|--------------------|---------------(---|------------------|--------)|
A|--------------------|---------------(---|------------------|--------)|
E|--------------------|---------------(---|------------------|--------)|


[Part 6]

e|-----------------|-----------------|-----------------------------|
B|----3---2--------|-0---------------|-----------------------------|
G|---------------2-|--------2-2------|-----------------------------|
D|-----------------|-----------------|-----------------------------|
A|-----------------|-----------------|-----------------------------|
E|-----------------|-----------------|-----------------------------|


[Part 7]

e|-------------------|-------------------|-14-(hold for 20--| beats)
B|----12---12----14p-|-14------10-10-----|------------------|
G|-------------------|-------------------|------------------|
D|-------------------|-------------------|------------------|
A|-------------------|-------------------|------------------|
E|-------------------|-------------------|------------------|


[Breakdown] 
(As I call it)

e|----15-----------15-|-14------12-14-12-|----15---14--12--10-|
B|--------------------|------------------|--------------------|
G|--------------------|------------------|--------------------|
D|--------------------|------------------|--------------------|
A|--------------------|------------------|--------------------|
E|--------------------|------------------|--------------------|

e|-----------------|----------------|---------------------------|
B|-5----------8-7--|-5---------10-7-|-8(hold for 12 beats)------|
G|-----------------|----------------|---------------------------|
D|-----------------|----------------|---------------------------|
A|-----------------|----------------|---------------------------|
E|-----------------|----------------|---------------------------|

e|------------------|-------------------|---------------------------|
B|------0-3-------0-|-5------3-7------3-|-10------------------------|
G|------------------|-------------------|---------------------------|
D|------------------|-------------------|---------------------------|
A|------------------|-------------------|---------------------------|
E|------------------|-------------------|---------------------------|


[Part 8]

e|-----------------|-----------------|-----------------------------|
B|-3-0-3-5-2-0-2-3-|-0---------------|-----------------------------|
G|-----------------|---2-2-0-0-------|-0---------------------------|
D|-----------------|-----------4-4-2-|---4-2-0---------------------|
A|-----------------|-----------------|-----------------------------|
E|-----------------|-----------------|-----------------------------|

How to play:


[Intro]
[Part 1] (x4)
[Part 2]
[Part 3] (x2)
[Part 4]
[Part 5]
[Part 6]
[Part 2]
[Part 3]
[Part 7]
* (Upcoming Key Change after Breakdown, but is convenient to put CAPO 2 on here – all
tabs are relative to Capo anyways)*
[Breakdown]

KEY CHANGE

[Part 1](x2)
[Part 4]
[Part 5](x2)
[Part 8]


************************************

| /  slide up
| \  slide down
| h  hammer-on
| p  pull-off
| ~  vibrato
| +  harmonic
| x  Mute note

************************************

            
            
Suggest correction
Creating personal tab
Creating personal tab
You can edit any tab online and save it as your Personal.

You can edit, replace or remove any tab part or add personal notes – all changes will be seen only by you.

Personal tabs can be accessed anytime from any device, even offline.
Learn more »
comments
print report bad tab
4 comments total. Showing first comments.
-2 reply
finntherussian 10 Apr 04, 2014 12:20 PM

There is no part five. Please fix! But other than that, it is fine

+1 reply
mparry96 10 Aug 31, 2015 08:11 AM

Part 5 is on the same line as Part 4 cont.

0 reply
seanwachob 59 Dec 09, 2015 06:00 AM, edited at 11:00 am

This is so amazing! My daughter and I are learning to play, and it sounds great! (She's doing much better than me!!!!)

guest
You may want to rate the tab now too:
select rating
Wanna post a correction for this tab? Suggest correction