Oops, an error
Loading. Please wait.

Clocks And Spoons Tab

version 1
version 1

Whole song

7,634 views 18 this week
no commentswrite comment
1 2 3 4 5
please rate
add to favorites
launch autoscroll
font size
0
reset
how to read this tab
guitar tuner
Autoscroll
slow
fast
+/-
esc
set tempo
stop
Help us to improve Ultimate-Guitar.com Take our survey!
×
Author
Tabbers playing skills
----------------------------------------------------------------------------
                     Clocks and Spoons - John Prine
----------------------------------------------------------------------------

Tabbed by: Dave S.
Email: Dlgibson@netscape.com

Tuning: Standard

Artist: John Prine
Album: Diamonds in the Rough
Year: 1972


Intro
e|---------------5-------------4--------------2------0-----0-----0-4-------|
B|-----------2---2---------6-----6--------3-----3------0-----0-------------|
G|-------------2---2------------------------2-----2------1-----1-----------|
D|-------------------2-------6------6--0-------------2---------------------|
A|--------0-------------4--------------------------------------------------|
E|--2-3-4------------------------------------------------------------------|

e|--5p2---5------4-----4------2-----2------0-----0-----0-4--2-----2--------|
B|------2----------6-----6------3-----3------0-----0----------3-----3------|
G|----------2---------------------2-----2------1-----1----------2-----2----|
D|------------2------6-----6--0------------2----------------0--------------|
A|--0------------4---------------------------------------------------------|
E|-------------------------------------------------------------------------|

e|--0-----0-----0-4--5----5----2-----2------2-----2------0-----0-----0-4---|
B|----0-----0----------2----2----2-----2------3-----3------0-----0---------|
G|------1-----1--------------------2------------2-----2------1-----1-------|
D|--2------------------------------------4--0------------2-----------------|
A|-------------------0-----------------------------------------------------|
E|------------------------4----2-------------------------------------------|

e|--5p2---5----------5----------|
B|------2------2----------------|
G|------------------------------|
D|------------------------------|
A|--0----------------0----------|
E|----------------------2-3-4---|


A                     C#7
Clocks and spoons and empty rooms
D               E
Its raining out tonight
A             C#7
What a way to end a day
D                 E
By turnin out the light
D              E                 A
Shoot the moon right between the eyes
A/G# F#m     D             E             A
Im   sending most of me to sunny country side


(Repeat Intro)


A              C#7         D             E
Runnin through sky of blue rollin in the sun
A         C#7       D              E
Every day has a way of overflowing one
D              E                 A
Shoot the moon right between the eyes
A/G# F#m     D             E             A
Im   keeping most of me in sunny country side


(Repeat Intro)


A               C#7          D                E
Dont know how I did that now wonder where its gone
A               C#7            D              E
Must have spent the way I went waitin for the dawn
D              E                 A
Shoot the moon right between the eyes
A/G# F#m
Im   screaming
D               E             A
Take me back to sunny country side
D              E                 A
Shoot the moon right between the eyes
A/G# F#m
Im   screaming
D               E             A
Take me back to sunny country side

A                     C#7
Clocks and spoons and empty rooms
D               A
Its raining out tonight


Cords
     A      C#7      D       E      A/G#    F#m
e|---0---|---4---|---2---|---0---|---0---|---2---|
B|---2---|---6---|---3---|---0---|---2---|---2---|
G|---2---|---4---|---2---|---1---|---2---|---2---|
D|---2---|---6---|---0---|---2---|---2---|---4---|
A|---0---|---4---|-------|---2---|-------|---4---|
E|-------|-------|-------|---0---|---4---|---2---|
Suggest correction
Give kudos to tab author, rate the tab!
1 2 3 4 5
comments
print report bad tab
guest
You may want to rate the tab now too:
select rating
Wanna post a correction for this tab? Suggest correction