Oops, an error
Loading. Please wait.

Hello In There Tab

10,613 views 18 this week
no commentswrite comment
1 2 3 4 5
please rate
add to favorites
launch autoscroll
font size
0
reset
how to read this tab
guitar tuner
Autoscroll
slow
fast
+/-
esc
set tempo
stop
Help us to improve Ultimate-Guitar.com Take our survey!
×
Author
Capo
Tabbers playing skills
5th fret
advanced
----------------------------------------------------------------------------
                       Hello in There - John Prine
----------------------------------------------------------------------------


Tabbed by: Dave S. 
Email: prime-prine@hotmail.com

Tuning: Standard (CAPO 5th Fret)




Intro/Verse


E|----------------------|-------------3---------|----------0-------------|
B|-------------------0--|-----------------------|--0h1-----------1-------|
G|----------------------|-----0-----------------|------------------------|
D|----------------------|--------0---------0----|-------2-----------2----|
A|----------------------|-----------------------|--0----------0----------|
E|----------------------|--3----------3---------|------------------------|

    
----------2-----------0--|-----------2--------------|-------------3---------|
--0h1-----------1--------|-----1-----------1-----0--|-----------------------|
-------2-----------2-----|--------2-----------2-----|-----0-----------------|
--0----------0-----------|--0-----------0-----------|--------0---------0----|
-------------------------|--------------------------|-----------------------|
-------------------------|--------------------------|--3----------3---------|

  
----------0-------------|----------2-----------0--|
--0h1-----------1-------|--0h1-----------1--------|
------------------------|-------2-----------2-----|
-------2-----------2----|--0----------0-----------|
--0----------0----------|-------------------------|
------------------------|-------------------------|

 
----------2------------|--2-------------2-----0--|-----------2-------------|
----1-----------1------|--3-------3--------------|-----3-----------3-----3-|
-------2-----------2---|--4----4-----------4-----|--------4-----------4----|
-0-----------0---------|--0----------0-----------|--0-----------0----------|
-----------------------|-------------------------|-------------------------|
-----------------------|-------------------------|-------------------------|

  
-----0-------0----------|-------------0----------|-------------3----------|
------------------------|-----1------------------|-----0------------------|
---------------------0--|---------------------0--|---------------------0--|
--------2---------2-----|--------2---------2-----|--------0---------0-----|
--3----------3----------|--3----------3----------|------------------------|
------------------------|------------------------|--3----------3----------|

   
-------------3----------|-------------2----------|-------------2---------|
-----0---------------0--|-----3---------------3--|-----3-----------------|
------------------------|--------2---------2-----|--------2---------2----|
--------0---------0-----|--0----------0----------|--0----------0---------|
------------------------|------------------------|-----------------------|
--3----------3----------|------------------------|-----------------------|

 
Chorus:

----------------1-------|----------------1-------|----------------3--------|
--1---------------------|--1---------------------|--0----------------------|
----------2-------------|----------2-------------|----------0-----------0--|
-------3-----------3----|-------3-----------3----|-------0-----------0-----|
------------------------|------------------------|-------------------------|
--1----------1----------|--1----------1----------|--3----------3-----------|

    
-------------3---------|----------------1-------|----------------1-------|
-----0-----------------|--1---------------------|--1---------------------|
-----------------------|----------2-------------|----------2-------------|
--------0---------0----|-------3-----------3----|-------3-----------3----|
-----------------------|------------------------|------------------------|
--3----------3---------|--1----------1----------|--1----------1----------|


 
----------------3--------|-------------3---------|--2-------------2-----0--|
--0----------------------|-----0-----------------|--3-------3--------------|
----------0-----------0--|-----------------------|--4----4-----------4-----|
-------0-----------0-----|--------0---------0----|--0----------0-----------|
-------------------------|-----------------------|-------------------------|
--3----------3-----------|--3----------3---------|-------------------------|

   
-----------2--------------|-----0-------0----------|-------------0----------|
-----3-----------3-----3--|------------------------|-----1------------------|
--------4-----------4-----|---------------------0--|---------------------0--|
--0-----------0-----------|--------2---------2-----|--------2---------2-----|
--------------------------|--3----------3----------|--3----------3----------|
--------------------------|------------------------|------------------------|

  
-------------3----------|-------------3----------|-------------2----------|
-----0------------------|-----0---------------0--|-----3---------------3--|
---------------------0--|------------------------|--------2---------2-----|
--------0---------0-----|--------0---------0-----|--0----------0----------|
------------------------|------------------------|------------------------|
--3----------3----------|--3----------3----------|------------------------|

     
-------------2---------||
-----3-----------------||
--------2---------2----||
--0----------0---------||
-----------------------||
-----------------------||


Verse  2x
Chorus 1x
Verse  2x
Chorus 1x
Verse  1x


| /  slide up
| \  slide down
| h  hammer-on
| p  pull-off
| ~  vibrato
| +  harmonic
| x  Mute note
===========================================================================
Suggest correction
Give kudos to tab author, rate the tab!
1 2 3 4 5
comments
print report bad tab
guest
You may want to rate the tab now too:
select rating
Please do not post tabs as comments. Select "correction" instead!