Oops, an error
Loading. Please wait.

Sweet Revenge Tab

8,385 views 12 this week
no commentswrite comment
1 2 3 4 5
excellent!
x 2
add to favorites
launch autoscroll
font size
0
reset
how to read this tab
guitar tuner
Tab Pro tools
  • play this tab
  • loop segment
  • change instrument
  • show fretboard
  • metronome
Autoscroll
slow
fast
+/-
esc
set tempo
stop
Contributor
Tabbers playing skills
advanced
----------------------------------------------------------------------------
                        Sweet Revenge - John Prine
----------------------------------------------------------------------------

Tabbed by: Dave S.
Email: Dlgibson@netscape.com

Tuning: Standard

Artist: John Prine
Album: Prime Prine
Year: 1976


Intro
e|-----------------------------5b6-6b5-3--------------------------|
B|--------------3-6-3-6/8~~~~~-----------6-5----------------------|
G|------3-5-5b7------------------------------5-3------------------|
D|--3/5------------------------------------------5-3--------------|
A|---------------------------------------------------5-3-4h5------|
E|-----------------------------------------------------------3----|

      G
I got kicked off Noah's Ark
          C                 G
I turn my cheek to unkind remarks
                                       D
there was two of everything but one of me
             G
and when the rains came tumbling down
          C                     G
I held my breath and I stood my ground
                           D              C G
and I watched that ship go sailing out to sea.



Chorus:
        C
Take it back, take it back
   G
oh no you can't say that
                                     D
all of my friends are not dead or in jail
        G
through rock and through stone
          C          G
the black wind still moans
                      D             C  G
sweet revenge sweet revenge without fail.



            G
I caught an aisle seat on a plane
             C                      G
and drove an English teacher half insane
                                                D
making up jokes about bicycle spokes and red balloons
     G
so I called up my local deejay
       C                    G
and he didn't have a lot to say 
                          D                  C   G
but the radio has learned all of my favorite tunes.



(Repeat Chorus)

      
    G
The white meat is on the run
        C                    G 
and the dark meat is far too done
                                     D
and the milkman left me a note yesterday
    G
get out of this town by noon
       C                 G
you're coming on way too soon
                          D             C G
and besides that we never liked you any way.


(Repeat Chorus)

      G             D               C  G
Sweet revenge sweet revenge will prevail.


Cords
    G     C     D
e|--3--|--0--|--2--|
B|--0--|--1--|--3--|
G|--0--|--0--|--2--|
D|--0--|--2--|--0--|
A|--2--|--3--|-----|
E|--3--|-----|-----|
comments
We did not receive enough feedback on this tab! Please rate:
print report bad tab
1 2 3 4 5
I want to post or [tab]
guest
You may want to rate the tab now too:
select rating
Please do not post tabs as comments. Select "correction" instead!