Oops, an error
Loading. Please wait.

The Hand Of The Almighty tab

49 views 3 this week
no commentswrite comment
1 2 3 4 5
3 more votes to show rating
add to favorites
×
Save as Personal and add changes to this tab that will be seen only by you. Learn more ›
×
You can save this tab as Personal to edit and correct it or add notes. All changes will be seen only by you. Learn more »
launch autoscroll
font size
0
reset
how to read this tab
guitar tuner
edit
Autoscroll
slow
fast
+/-
esc
set tempo
stop
Author
Difficulty
intermediate
THE HAND OF THE ALMIGHTY
by John R.Butler   
tabbed by:    Dropdeee
tuning:       Standard
effects:      Acoustic/Clean
video:        https://www.youtube.com/watch?v=oWqMaTYRcCA

Note:         The chords separated with only 1 space are played with a 'down/up' 
              strum pattern.  That will give you the sound of the original song.


 [Intro]

         G
e|-------------3---|
B|-----------0-----|
G|---------0-------|
D|-------0---------|
A|-----2-----------|
E|---3-------------|


 [Verse 1]

              G                          C                       G    

e|------3---------3-----3---|---------------------0-0--|-----------3-3------|
B|------0---------0-----0---|---------------------1-1--|-----------0-0------|
G|------0---0-0---0-----0---|------------------0--0-0--|-----------0-0--0---|
D|---0--0---0-0---0--0--0---|------------------2--2-2--|--------0--0-0--0---|
A|---2------2-2------2------|---0---2----3-----3-------|--2-----2-------2---|
E|---3---------------3------|--------------------------|----3---3-----------|
  Oh sinner, do not stray     from the straight & narrow   way,    for the
  
         G               Em           D        A      D

e|----3-------3--|----0-------0--|----2-2--|----0--|--2--|---------|      
B|----0-------0--|----0-------0--|----3-3--|----2--|--3--|---------|
G|----0--0-0--0--|----0--0-0--0--|-2--2-2--|-2--2--|--2--|---------|
D|-0--0--0-0--0--|-2--2--2-2--2--|-0--0-0--|-2--2--|--0--|---------|
A|-2-----2-2-----|-2-----2-2-----|-0-------|-0-----|--0--|---------|
E|-3-------------|-0-------------|---------|-------|-----|--0-1-2--|
 lord is surely watching what you do.                      If you

                G                          C                      G    

e|--------3--------3------3---|------------------0-0---|-----------3-3------|
B|--------0--------0------0---|------------------1-1---|-----------0-0------|
G|--------0--0-0---0------0---|--------------0---0-0---|-----------0-0--0---|
D|----0---0--0-0---0---0--0---|--------------2---2-2---|--------0--0-0--0---|
A|----2------2-2-------2------|---0---2---3--3---------|---2----2-------2---|
E|----3----------------3------|------------------------|-----3--3-----------|
 approach the devil's den,         turn round don't  enter  in     lest the

         G            D         G         G         C          G

e|-----3---------|-----2--|------3-3--|-----3--|-------0--|----3-----|
B|-----0---------|-----3--|------0-0--|-----0--|-------1--|----0-----|
G|-----0---------|--2--2--|--0---0-0--|-----0--|--0-0--0--|----0-----|
D|--0--0------0--|--0--0--|--0---0-0--|--0--0--|--2-2--2--|----0-----|
A|--2-----0-2----|--0-----|--2--------|--2-----|--3-3-----|----2-----|
E|--3------------|--------|-----------|--3-----|----------|----3-----|
  hand of  the  almighty   fall on     you.

  
 [Chorus]

                        G                      C                    G    

           e|------3-------3-----3---|-------------0-0--|---------------3-3------|
           B|------0-------0-----0---|-------------1-1--|---------------0-0------|
           G|------0--0-0--0-----0---|----------0--0-0--|---------------0-0--0---|
           D|---0--0--0-0--0--0--0---|----------2--2-2--|------------0--0-0--0---|
           A|---2-----2-2-----2------|---0-2-3--3-------|------2-----2-------2---|
           E|---3-------------3------|------------------|--------3---3-----------|
He'll fuck you uuuuuuuuuuuuuuup,        yes,   god will fuck you up,    if you 

         G               Em           D         A     D

e|----3-------3--|----0-------0--|----2-2--|----0--|--2--|-----------------|      
B|----0-------0--|----0-------0--|----3-3--|----2--|--3--|-----------------|
G|----0--0-0--0--|----0--0-0--0--|-2--2-2--|-2--2--|--2--|-----------------|
D|-0--0--0-0--0--|-2--2--2-2--2--|-0--0-0--|-2--2--|--0--|-----------------|
A|-2-----2-2-----|-2-----2-2-----|-0-------|-0-----|--0--|-----------------|
E|-3-------------|-0-------------|---------|-------|-----|--0----1----2----|
  dare to  dis-oh-bey his stern commaaaaaaaaand.           He'll fuck you
 
              G                           C                    G    
  
e|-------3--------3------3---|------------------0-0---|-----------3-3------|
B|-------0--------0------0---|------------------1-1---|-----------0-0------|
G|-------0--0-0---0------0---|--------------0---0-0---|-----------0-0--0---|
D|---0---0--0-0---0---0--0---|--------------2---2-2---|--------0--0-0--0---|
A|---2------2-2-------2------|---0---2---3--3---------|---2----2-------2---|
E|---3----------------3------|------------------------|-----3--3-----------|
   uuuuuuuuuuuuup,            don't you know he'll fuck you up,   so you

       G              D         G          G        C              G

e|-----3---------|-----2--|------3-3--|-----3--|-------0--|-----3--------3---|
B|-----0---------|-----3--|------0-0--|-----0--|-------1--|-----0--------0---|
G|-----0---------|--2--2--|--0---0-0--|-----0--|--0-0--0--|-----0--0-0---0---|
D|--0--0------0--|--0--0--|--0---0-0--|--0--0--|--2-2--2--|--1--0--0-0---0---|
A|--2-----0-2----|--0-----|--2--------|--2-----|--3-3-----|--2-----2-2-------|
E|--3------------|--------|-----------|--3-----|----------|--3---------------|
  better do some  prayin'  while  you   can.                       Long  a-


 [Verse 2]

            G                         C                   G    

e|------3-------3-----3---|----------------0-0--|-----------3-3------|
B|------0-------0-----0---|----------------1-1--|-----------0-0------|
G|------0--0-0--0-----0---|-------------0--0-0--|-----------0-0--0---|
D|---0--0--0-0--0--0--0---|-------------2--2-2--|--------0--0-0--0---|
A|---2-----2-2-----2------|--0-2--3-----3-------|--2-----2-------2---|
E|---3-------------3------|---------------------|----3---3-----------|
   -go a man named Lot,    had a wife he thought was hot,   but she

         G                  Em           D         A     D

e|----3---------3--|-----0-------0--|----2-2--|----0--|--2--|-------------|      
B|----0---------0--|-----0-------0--|----3-3--|----2--|--3--|-------------|
G|----0---0-0---0--|-----0--0-0--0--|-2--2-2--|-2--2--|--2--|-------------|
D|-0--0---0-0---0--|--2--2--2-2--2--|-0--0-0--|-2--2--|--0--|-------------|
A|-2------2-2------|--2-----2-2-----|-0-------|-0-----|--0--|-------------|
E|-3---------------|--0-------------|---------|-------|-----|--0---1---2--|
  could not stop her black and sinful waaaaays.               You know it
             
              G                            C                     G    

e|--------3--------3------3---|------------------0-0---|-----------3-3------|
B|--------0--------0------0---|------------------1-1---|-----------0-0------|
G|--------0--0-0---0------0---|--------------0---0-0---|-----------0-0--0---|
D|----0---0--0-0---0---0--0---|--------------2---2-2---|--------0--0-0--0---|
A|----2------2-2-------2------|---0---2---3--3---------|---2----2-------2---|
E|----3----------------3------|------------------------|-----3--3-----------|
    was her own damn fault, when God turned that bitch to salt,    that's the

        G             D         G         G         C          G

e|-----3---------|-----2--|------3-3--|-----3--|-------0--|----3-----|
B|-----0---------|-----3--|------0-0--|-----0--|-------1--|----0-----|
G|-----0---------|--2--2--|--0---0-0--|-----0--|--0-0--0--|----0-----|
D|--0--0------0--|--0--0--|--0---0-0--|--0--0--|--2-2--2--|----0-----|
A|--2-----0-2----|--0-----|--2--------|--2-----|--3-3-----|----2-----|
E|--3------------|--------|-----------|--3-----|----------|----3-----|
   way he used to work back  in  those  daaaaays.


 [Chorus]

                        G                      C                    G    

           e|------3-------3-----3---|-------------0-0--|------------3-3------|
           B|------0-------0-----0---|-------------1-1--|------------0-0------|
           G|------0--0-0--0-----0---|----------0--0-0--|------------0-0--0---|
           D|---0--0--0-0--0--0--0---|----------2--2-2--|---------0--0-0--0---|
           A|---2-----2-2-----2------|---0-2-3--3-------|---2-----2-------2---|
           E|---3-------------3------|------------------|-----3---3-----------|
He fucked 'em  uuuuuuuuuuuuuuup,        he really fucked 'em up,    when the 

         G                 Em             D        A      D

e|----3-------3--|-----0----------0--|----2-2--|----0--|--2--|-----------------|      
B|----0-------0--|-----0----------0--|----3-3--|----2--|--3--|-----------------|
G|----0--0-0--0--|-----0----0-0---0--|-2--2-2--|-2--2--|--2--|-----------------|
D|-0--0--0-0--0--|-2---2----2-2---2--|-0--0-0--|-2--2--|--0--|-----------------|
A|-2-----2-2-----|-2--------2-2------|-0-------|-0-----|--0--|-----------------|
E|-3-------------|-0-----------------|---------|-------|-----|--0----1----2----|
  people went 'n turned their backs on hiiiiiiiiim.            He can fuck you
 
              G                           C                      G    
  
e|-------3--------3------3---|------------------0-0---|-----------3-3--------|
B|-------0--------0------0---|------------------1-1---|-----------0-0--------|
G|-------0--0-0---0------0---|--------------0---0-0---|-----------0-0--0-----|
D|---0---0--0-0---0---0--0---|--------------2---2-2---|--------0--0-0--0-----|
A|---2------2-2-------2------|---0---2---3--3---------|---2----2-------2-----|
E|---3----------------3------|------------------------|-----3--3-------------|
   uuuuuuuuuuuuup,               no shit he'll  fuck  you  up,        just 

         G            D         G          G        C              G

e|-----3---------|-----2--|------3-3--|-----3--|-------0--|-----3--------3---|
B|-----0---------|-----3--|------0-0--|-----0--|-------1--|-----0--------0---|
G|-----0---------|--2--2--|--0---0-0--|-----0--|--0-0--0--|-----0--0-0---0---|
D|--0--0------0--|--0--0--|--0---0-0--|--0--0--|--2-2--2--|--1--0--0-0---0---|
A|--2-----0-2----|--0-----|--2--------|--2-----|--3-3-----|--2-----2-2-------|
E|--3------------|--------|-----------|--3-----|----------|--3---------------|
   like he  fucked the people up back   theeeeeeeen.             I  used to 


 [Verse 3]

               G                         C                    G    

e|-------3---------3------3---|---------------0-0---|-------------3-3------|
B|-------0---------0------0---|---------------1-1---|-------------0-0------|
G|-------0---0-0---0------0---|------------0--0-0---|-------------0-0--0---|
D|---0---0---0-0---0---0--0---|------------2--2-2---|----------0--0-0--0---|
A|---2-------2-2-------2------|--0-2-3-----3--------|---2------2-------2---|
E|---3-----------------3------|---------------------|------3---3-----------|
  have a friend named Ray,           who walked that evil way,        he

         G                     Em              D         A      D

e|----3---------3---|------0---------0---|------2-2--|----0--|--2--|--------------|      
B|----0---------0---|------0---------0---|------3-3--|----2--|--3--|--------------|
G|----0---0-0---0---|------0---0-0---0---|---2--2-2--|-2--2--|--2--|--------------|
D|-0--0---0-0---0---|---2--2---2-2---2---|---0--0-0--|-2--2--|--0--|--------------|
A|-2------2-2-------|---2------2-2-------|---0-------|-0-----|--0--|--------------|
E|-3----------------|---0----------------|-----------|-------|-----|--0---1---2---|
  cursed and drank and broke his neighbour's feeeeeence.                  You know
             
              G                            C                     G    

e|--------3--------3------3---|------------------0-0---|-----------3-3------|
B|--------0--------0------0---|------------------1-1---|-----------0-0------|
G|--------0--0-0---0------0---|--------------0---0-0---|-----------0-0--0---|
D|----0---0--0-0---0---0--0---|--------------2---2-2---|--------0--0-0--0---|
A|----2------2-2-------2------|---0---2---3--3---------|---2----2-------2---|
E|----3----------------3------|------------------------|-----3--3-----------|
     Ray  was  full  aware      that some sheep were over there     and he

        G             D         G         G         C          G

e|-----3---------|-----2--|------3-3--|-----3--|-------0--|----3-----|
B|-----0---------|-----3--|------0-0--|-----0--|-------1--|----0-----|
G|-----0---------|--2--2--|--0---0-0--|-----0--|--0-0--0--|----0-----|
D|--0--0------0--|--0--0--|--0---0-0--|--0--0--|--2-2--2--|----0-----|
A|--2-----0-2----|--0-----|--2--------|--2-----|--3-3-----|----2-----|
E|--3------------|--------|-----------|--3-----|----------|----3-----|
 knew them in the  bib   -   li  -  cal seeeeeense.



 [Chorus]

                        G                      C                    G    

           e|------3-------3-----3---|-------------0-0--|------------3-3------|
           B|------0-------0-----0---|-------------1-1--|------------0-0------|
           G|------0--0-0--0-----0---|----------0--0-0--|------------0-0--0---|
           D|---0--0--0-0--0--0--0---|----------2--2-2--|---------0--0-0--0---|
           A|---2-----2-2-----2------|---0-2-3--3-------|---2-----2-------2---|
           E|---3-------------3------|------------------|-----3---3-----------|
 God fucked him uuuuuuuup.              He went 'n fucked Ray up,    went 'n

         G                   Em             D        A      D

e|----3--------3--|------0----------0--|----2-2--|----0--|--2--|-----------------|      
B|----0--------0--|------0----------0--|----3-3--|----2--|--3--|-----------------|
G|----0---0-0--0--|------0----0-0---0--|-2--2-2--|-2--2--|--2--|-----------------|
D|-0--0---0-0--0--|--2---2----2-2---2--|-0--0-0--|-2--2--|--0--|-----------------|
A|-2------2-2-----|--2--------2-2------|-0-------|-0-----|--0--|-----------------|
E|-3--------------|--0-----------------|---------|-------|-----|--0----1----2----|
  paid him back for all  his  wicked     siiiiiiins.              He fucked him
 
              G                           C                       G    
  
e|-------3--------3------3---|------------------0-0---|-----------3-3--------|
B|-------0--------0------0---|------------------1-1---|-----------0-0--------|
G|-------0--0-0---0------0---|--------------0---0-0---|-----------0-0--0-----|
D|---0---0--0-0---0---0--0---|--------------2---2-2---|--------0--0-0--0-----|
A|---2------2-2-------2------|---0---2---3--3---------|---2----2-------2-----|
E|---3----------------3------|------------------------|-----3--3-------------|
    uuuuuuuuup,                 fucked that boy completely up,    now he's 

         G            D         G          G        C              G

e|-----3---------|-----2--|------3-3--|-----3--|-------0--|--------3--------|
B|-----0---------|-----3--|------0-0--|-----0--|-------1--|--------0--------|
G|-----0---------|--2--2--|--0---0-0--|-----0--|--0-0--0--|--------0--------|
D|--0--0------0--|--0--0--|--0---0-0--|--0--0--|--2-2--2--|--------1--------|
A|--2-----0-2----|--0-----|--2--------|--2-----|--3-3-----|--------2--------|
E|--3------------|--------|-----------|--3-----|----------|--------3--------|
   married to  a    Presbyteriaaaaaaaaaan.
Suggest correction
Creating personal tab
Creating personal tab
You can edit any tab online and save it as your Personal.

You can edit, replace or remove any tab part or add personal notes – all changes will be seen only by you.

Personal tabs can be accessed anytime from any device, even offline.
Learn more »
Give kudos to tab author, rate the tab!
1 2 3 4 5
comments
print report bad tab
guest
You may want to rate the tab now too:
select rating
Wanna post a correction for this tab? Suggest correction