Oops, an error
Loading. Please wait.

Only Remembered Tab

1,328 views 3 this week
no commentswrite comment
1 2 3 4 5
please rate
add to favorites
launch autoscroll
font size
0
reset
how to read this tab
guitar tuner
Tab Pro tools
  • play this tab
  • loop segment
  • change instrument
  • show fretboard
  • metronome
×
Best way to learn
"Only Remembered"
Autoscroll
slow
fast
+/-
esc
set tempo
stop
Contributor
Difficulty
intermediate
Author: Hanzak

My first tab so hope you like it :)


For a solo:

|----------------|----------------|----------------|----------------|
|--------3-------|----------------|0---2-3-3-----0-|22--0-----------|
|2---1-2---2-----|2---0-2-0-------|----------2-----|-------22-------|
|--------0-----4-|----------4-----|--------0-------|----------------|
|0---------------|0-------0-5-0-5-|------0---------|0-------0-------|
|----------------|----------------|3---------------|----------3-2-0-|



|----------------|----------------|----------------|----------------|
|--------3-------|----------------|0---2-3-3-------|----------------|
|2---1-2-----2---|2---0-2-0-------|----------2---0-|----------------|
|--------0------4|----------4-----|--------0-------|4---2--00-------|
|0---------------|0-------0-5-0-5-|------0---------|5---0-----------|
|----------------|----------------|3---------------|--------2-0-2-3-|


|----------------|----------------|----------------|----------------|
|----------------|----------------|--------0-2-3-0-|2---0-----------|
|--------0-0-----|-------0-2-2----|1---1-2---------|-------22-------|
|2---2--4--------|4---4-----------|----------------|----0-----------|
|0---0-----------|5---5----0--0-0-|----------------|0-------0-------|
|--------3---3-3-|----------------|0---0---3-------|----------3-2-0-|



|----------------|----------------|----------------|----------------|
|--------3-------|----------------|0---2-3-3-------|----------------|
|2---1-2-----2---|2---0-2-0-------|----------2---0-|----------------|
|--------0------4|----------4-----|--------0-------|4---2--00-------|
|0---------------|0-------0-5-0-5-|------0---------|5---0-----------|
|----------------|----------------|3---------------|--------2-------|


For for a duet...

Part 1:
|----------10---------|---------------------|-----9-10-10---------|99--------|
|10---9-10----10------|10------10-----------|12-----------10---12-|----12----|
|------------------11-|-----12----12-11-----|---------------------|-----1010-|
|---------------------|---------------------|---------------------|----------|
|---------------------|---------------------|---------------------|----------|
|---------------------|---------------------|---------------------|----------|

|---------10---------|-------------------|-----9-10-10---------|-------------|
|10---9-10-----10----|10------10---------|12-----------10------|-------------|
|------------------11|-----12----12-11---|------------------12-|11---9-------|
|--------------------|-------------------|---------------------|--------1212-|
|--------------------|-------------------|---------------------|-------------|
|--------------------|-------------------|---------------------|-------------|

|-------------------|---------------------|------------9-10----|9------------|
|-------------------|-----------10-10-----|9---9-10-12------12-|----12--1010-|
|9---9--1112-12-----|11---11--12----------|--------------------|-------------|
|-------------------|---------------------|--------------------|-------------|
|-------------------|---------------------|--------------------|-------------|
|-------------------|---------------------|--------------------|-------------|

|----------10---------|---------------------|-----9-10-10---------|-----------|
|10---9-10------10----|10------10-----------|12-----------10------|-----------|
|-------------------11|-----12----12-11-----|------------------12-|11---9-----|
|---------------------|---------------------|---------------------|------1212-|
|---------------------|---------------------|---------------------|-----------|
|---------------------|---------------------|---------------------|-----------|

Part 2:

 A       D        A       D        G       D        A
|----0-------2---|----0-------2---|----3-------2---|----0-------0---|
|-----2----3--3--|-----2----3--3--|-----0----3--3--|-----2-------2--|
|--2---2--2-2--2-|--2---2--2-2--2-|--0---0--2-2--2-|--2---2---2---2-|
|-2-2---20------0|-2-2---20------0|-0-0---00------0|-2-2---2-2-2---2|
|0---------------|0---------------|----------------|0-------0-------|
|----------------|----------------|3---------------|----------------|

 A       D       A        D        G       D        D   A   D
|----0-------2---|----0-------2---|----3-------2---|------------2---|
|-----2----3--3--|-----2----3--3--|-----0----3--3--|--3-------3--3--|
|--2---2--2-2--2-|--2---2--2-2--2-|--0---0--2-2--2-|-2-2--2--2-2--2-|
|-2-2---20------0|-2-2---20------0|-0-0---00------0|0----2-20------0|
|0---------------|0---------------|----------------|----0-----------|
|----------------|----------------|3---------------|----------------|

 A        G      D         A       E       G        A      D
|----0-------3---|----2-------0---|----0-------3---|----0-------2---|
|-----2-------0--|--3--3-------2--|-----0-------0--|-----2----3--3--|
|--2---2---0---0-|-2-2--2---2---2-|--1---1---0---0-|--2---2--2-2--2-|
|-2-2---2-0-0---0|0------0-2-2---2|-2-2---0-0-0---0|-2-2---20------0|
|0---------------|--------0-------|----------------|0---------------|
|--------3-------|----------------|0-------3-------|----------------|

 A       D        A       D        G       D        A
|----0-------2---|----0-------2---|----3-------2---|------------2---|
|-----2----3--3--|-----2----3--3--|-----0----3--3--|--3-------3--3--|
|--2---2--2-2--2-|--2---2--2-2--2-|--0---0--2-2--2-|-2-2--2--2-2--2-|
|-2-2---20------0|-2-2---20------0|-0-0---00------0|0----2-20------0|
|0---------------|0---------------|----------------|----0-----------|
|----------------|----------------|3---------------|----------------|
comments
We did not receive enough feedback on this tab! Please rate:
print report bad tab
1 2 3 4 5
I want to post or [tab]
guest
You may want to rate the tab now too:
select rating
Please do not post tabs as comments. Select "correction" instead!