Oops, an error
Loading. Please wait.

Snow Falls Or The Year Turns Round Again Tab

698 views 3 this week
no commentswrite comment
1 2 3 4 5
please rate
add to favorites
launch autoscroll
font size
0
reset
how to read this tab
guitar tuner
Autoscroll
slow
fast
+/-
esc
set tempo
stop
Help us to improve Ultimate-Guitar.com Take our survey!
×
Author
Difficulty
novice
-------------------------------------------------------------------------------
                             Snow Falls - John Tams
-------------------------------------------------------------------------------
Tabbed by:Al Brown
Email:aladonna@talktalk.net

Tuning:Standard

Loved this song from Warhorse  Song called Snow Falls although probably known
as The Year Turns Round Again.  My version for you to elaborate on please enjoy.
I have more on Youtube under Al Brown.

Play with a waltz type rythmn.

e|--------------------3-3-3--0--------------------2-----------------------3--|
B|--------------------3-3-3--2--------------------3-----------------------3--|
G|----0-0-0-----------0-0-0--2--------4-4-4-------2-------0-0-0-----------0--|
D|----2-2-2---0-0-0---0-0-0--2--------4-4-4-------0-------2-2-2---0-0-0---0--|
A|----2-2-2---0-0-0---2-2-2--0----0-2-2-2-2-0-------------2-2-2---0-0-0---2--|
E|--0-------2-------3-----------3-------------3-0---3-2-0-------2-------3----|

e|-3-3--0-----------------------------------------2-2-2---0-0-0--------------|
B|-3-3--2-----------------------------------------3-3-3---2-2-2--------------|
G|-0-0--2-------4-4-4-------0-0-0-0-------4-4-4---2-2-2---2-2-2-------4-4-4--|
D|-0-0--2-------4-4-4-------2-2-2-2-------4-4-4-0-0-0-0---2-2-2-------4-4-4--|
A|-2-2--0---0-2-2-2-2-0-----2-2-2-2---0-2-2-2-2---------0-0-0-0---0-2-2-2-2--|
E|--------3-------------3-2---------3---------------------------3------------|

e|---2-2-2---0-0-0-----------------------3-3-3--0-----------------------------|
B|---3-3-3---2-2-2-----------------------3-3-3--2-----------------------------|
G|---2-2-2---2-2-2-------0-0-0-----------0-0-0--2-------4-4-4---------0-0-0-0-|
D|-0-0-0-0---2-2-2-------2-2-2---0-0-0---0-0-0--2-------4-4-4---------2-2-2-2-|
A|---------0-0-0-0-------2-2-2---0-0-0---2-2-2--0---0-2-2-2-2-0-------2-2-2-2-|
E|-----------------3-2-0-------2-------3----------3-------------3-2-0---------|

That's it really just repeats with variations on the version played.  At least 
use this to base your own version.

Cruel winter cuts through like the reaper
The old year lies withered and slain
Like Barleycorn who arose from the grave
The new year will rise up again

And the snow falls
And the wind calls
And the year turns round again

And I'll wager a hat full of guineas
Against all of the songs you can sing
Some day you'll love and the next day you'll lose
And winter will turn into spring

And the snow falls
And the wind calls
And the year turns round again

There will come a time of great plenty
A time of good harvest and song
Til then put your trust in tomorrow my friend
For yesterday's over and done

And the snow falls
And the wind calls
And the year turns round again


===============================================================================
Suggest correction
Give kudos to tab author, rate the tab!
1 2 3 4 5
comments
print report bad tab
guest
You may want to rate the tab now too:
select rating
Wanna post a correction for this tab? Suggest correction