Oops, an error
Loading. Please wait.

Talking Goodwill Christmas Blues tab

1,404 views 3 this week
no commentswrite comment
1 2 3 4 5
2 more votes to show rating
add to favorites
×
Save as Personal and add changes to this tab that will be seen only by you. Learn more ›
×
You can save this tab as Personal to edit and correct it or add notes. All changes will be seen only by you. Learn more »
launch autoscroll
font size
0
reset
how to read this tab
guitar tuner
edit
Autoscroll
slow
fast
+/-
esc
set tempo
stop
I don't think this is 100% but it sounds good enough to sing along with

(I just copied the Oh Come all ye Faithful from a tab I found from this site)

e--------------------0-----0--1--0----------------|
b--1--1-----1--3--------3-----------3-------------|
g--------0--------0-------------------------------|
d-------------------------------------------------|
a-------------------------------------------------|
e-------------------------------------------------|

e-----3----3-----3-----3--2--2-2-2-----------------|
b-------------------------3--3-3-3-----------------|
g-------------------------2--2-2-2----0------------|
d-------------------2--------------4--0------------|
a--------2----3------------------------------------|
e--3-----------------------------------------------|

e-----3-----3-----3-----3-----2-----2-----2-----2--|
b--------------------------------------------------|
g--------------------------2-----2-----2-----2-----|    repeat this a bunch
d--------------------2-----------------------------|    of times until the
a--------2-----3-----------------------------------|    above part is called
e--3-----------------------------------------------|    for

I dont know those cool parts in between, heres the words:

Well I flew to L.A. for the very fist time
and met Howie Cline & Semore Stien they said
"Wes, we do this christmas thing we got all the acts to sing"
I said "what you want a cover of winter wonderland or somthing"
they said "do what like" so this is called
talkin' goodwill christmas blues, this is how it goes
here it goes
well christmas comes but once a year
364 days to get your ass in gear
and, he's a sucker, he's a fool
the man who don't revier the yule
so this christmas is just me and you
and a large helping of sweet baby jesu
may all your christmases? be vary white
and your boxing days be out of site but,
spare a thought when you give a gift
for the people doing christmas shifts
cause christmas is a time for giving
like lifetime is a time for living, yea
well they say that money has taken over
and nobody wants a cheap lego or pull over
they say that when any bell rings
one of god's chrildren gets its wings, ding
talkin' of wings theres a sign in LA X
that says "495 shoping days til the christmas after next"
buy now cry later,
so deck your halls with missle toe
and save your cents and hope it snows,
and watch some old films on tv but don't nock over the christmas tree
or you'll be cleaning up pine needles in july
a universal truth unfortunatly, christmas hootin-nanny
(12-2 days of christmas)
and your apartment is in a big mess
and the a.s.b.c.a. is not to happy either
so Im behind the speakers over here
wishing you a hip-hop happy new year
a wicked christmas and the coolest yule if your by a fire
or in a swimming pool
John Wesley Hardings the name and this is the groove
he was never known to make a foolish move
watch out for the record when it hits the shelves
happy christmas enjoy your elves
Suggest correction
Creating personal tab
Creating personal tab
You can edit any tab online and save it as your Personal.

You can edit, replace or remove any tab part or add personal notes – all changes will be seen only by you.

Personal tabs can be accessed anytime from any device, even offline.
Learn more »
Give kudos to tab author, rate the tab!
1 2 3 4 5
comments
print report bad tab
guest
Wanna post a correction for this tab? Suggest correction