Oops, an error
Loading. Please wait.

Philmont Hymn Fingerstyle Tab

10 views 3 this week
no commentswrite comment
1 2 3 4 5
3 more votes to show rating
add to favorites
launch autoscroll
font size
0
reset
how to read this tab
guitar tuner
Autoscroll
slow
fast
+/-
esc
set tempo
stop
Help us to improve Ultimate-Guitar.com Take our survey!
×
Author
Difficulty
intermediate
Artist: John Westfall
Song: Philmont hymn fingerstyle
Tabbed by: DT/ADC2000, reddit: /u/Whistle-Punk
E-mail: dyra.thorvaldsson@gmail.com

Tuning: Standard EBGDAE

  Sil-ver on the sage    | Star--lit skies  a-bove | As-pen cov-ered  hills |

e|------------------0-3--|--3----5-----3------- 0--|-----0---3--0-----------|
B|----------------1-1----|-------------------1--1--|--3---------------3-----|
G|--0----------2----0----|----------------------0--|------------------------|
D|------2-----------2----|----------------------2--|--3---------------------|
A|--3---------------3----|--3-------------------3--|---------3--------------|
E|---------3--------0 ---|-------5-----3--------0--|--3---------------3-----|
   
  Coun-try  that I love | Phil-mont here's to thee | Scout-ing  pa-ra-dise  |

e|----------------------|----------------------3----|--3----5----3----- 0---|
B|--1----3---1----------|------------------1---1----|----------------1--1---|
G|---------------2---0--|--0----------2--------0----|-------------------0---|
D|--2-------------------|------2---------------2----|-------------------2---|
A|--3-------------------|--3-------------------3----|--3----------------3---|
E|----------------------|---------3------------0 ---|-------5----3------0---|

  Out  in  God's  coun-try | To-night          | Wind in whisper-ing  pines |

e|------0---3------0-------|--0--0-------------|--8----7--5------0----3-----|
B|--3-------------------3--|-----1-------------|----------------------0-----|
G|-------------------------|-----0-------------|----------------------0-----|
D|--3----------------------|-----2-------------|----------------------2-----|
A|----------3--------------|-----3-------------|--8-------------------2-----|
E|--3-------------------3--|-------------------|----------------------0-----|

  Eag-les  Soar-ing high  | Pur-ple Moun-tains rise | Against an az-ure sky |

e|-5--3-----0---------0---|----0---3-----0---------|------------------------|
B|----------------1---1---|-3------------------3---|--1------3---1----------|
G|--------------------0---|------------------------|-----------------2---0--|
D|--------------------2---|-3----------------------|--2---------------------|
A|--------------------3---|--------3---------------|--3---------------------|
E|-5------------------0---|-3------------------3---|------------------------|

   Phil-mont  here's to thee | Scout-ing pa-ra-dise |

e|----------------------3----|--3----5----3----- 0--|
B|------------------1---1----|----------------1--1--|
G|--0----------2--------0----|-------------------0--|
D|------2---------------2----|-------------------2--|
A|--3-------------------3----|--3----------------3--|
E|---------3------------0----|-------5----3------0--|

   Out  in  God's coun-try | To-night |

e|------0---3------0-------|--0---0---|-0--3--7--8----0-----|
B|--3-------------------3--|------1---|----------------1----|
G|-------------------------|------0---|-----------------0---|
D|--3----------------------|------2---|------------------2--|
A|----------3--------------|------3---|-------------------3-|
E|--3-------------------3--|------0---|--------------------0|
Suggest correction
Give kudos to tab author, rate the tab!
1 2 3 4 5
comments
print report bad tab
guest
You may want to rate the tab now too:
select rating
Wanna post a correction for this tab? Suggest correction