Oops, an error
Loading. Please wait.

A New Hope Bass Tab

2,406 views 6 this week
no commentswrite comment
1 2 3 4 5
2 more votes to show rating
add to favorites
launch autoscroll
font size
0
reset
guitar tuner
Autoscroll
slow
fast
+/-
esc
set tempo
stop
Help us to improve Ultimate-Guitar.com Take our survey!
×
---------------------------------------------------------------------
		   A NEW HOPE - John Williams
---------------------------------------------------------------------

Tabbed By : Vamprewill
e-mail: vamprewill@yahoo.com

Tuning:

G|---8---10-11-13-11---8------8---10-11-8-15-13---13-13-13-13--|
D|8-8----------------------8-8---------------------------------|
A|-------------------------------------------------------------|
E|-------------------------------------------------------------|

G|---8--10-11-8-15----20-------11-10-8-15--11-8-------8--8-8---|
D|8-8--------------16------13-------------------8--8-8---------|
A|-----------------(yes,20)------------------------------------|
E|-------------------------------------------------------------|
Suggest correction
Give kudos to tab author, rate the tab!
1 2 3 4 5
comments
print report bad tab
guest
You may want to rate the tab now too:
select rating
Wanna post a correction for this tab? Suggest correction