Oops, an error
Loading. Please wait.

Cantina Band Bass Tab

version 1
version 1

Whole song

Interactive

31,672 views 66 this week
no commentswrite comment
1 2 3 4 5
x 8
add to favorites
launch autoscroll
font size
0
reset
guitar tuner
Autoscroll
slow
fast
+/-
esc
set tempo
stop
Help us to improve Ultimate-Guitar.com Take our survey!
×
Difficulty
intermediate
Song: Cantina Band (Bass, lead)
Composer: John Williams
Tuning: Standard (EADG)
Tabbed by: Dylan P.


G---------------------------------------------------------------------------|
D--4--4--4------------------------4--4--4-------------2p0-------------------|
A-4--4--4-4-3h4-3h4p3-2-1h2p1-0--4--4--4-4-3h4-2-2-1h2---4-2~---------------|
E------------------------------2~-------------------------------------------|

G------------------------------------------0--------------------------------|
D--4--4--4------2-2---------------------2~--4-------------------------------|
A-4--4--4-4-3h4-----4p2-0---------0~-4~------3h4-0--------------------------|
E-------------------------2~---2~-------------------------------------------|

G---------------------------------------------------------------------------|
D--------------------------------------------------2~-----------------------|
A-4-0-4--4-0-4--4-0-3h4-0---4-0-4--4-0-4--4-0-3h4-2-------------------------|
E------------------------2~-------------------------------------------------|

G---------------------------------------------------------------------------|
D----------------------------------------------2----------------------------|
A-4-0-4--4-0-4--4-0-3h4-0---0-0~0-0~-3h4----0-3-3h4-0-----------------------|
E------------------------2~--2---2------2~-2--------------------------------|


************************************

h - Hammer-On
p - Pull-off
~ - Let Ring

************************************
Suggest correction
comments
print report bad tab
guest
You may want to rate the tab now too:
select rating
Wanna post a correction for this tab? Suggest correction