Oops, an error
Loading. Please wait.

Cantina Band tab

version 2
version 2

Whole song

Interactive

2,740 views 33 this week
no commentswrite comment
1 2 3 4 5
3 more votes to show rating
add to favorites
×
Save as Personal and add changes to this tab that will be seen only by you. Learn more ›
×
You can save this tab as Personal to edit and correct it or add notes. All changes will be seen only by you. Learn more »
launch autoscroll
font size
0
reset
how to read this tab
guitar tuner
edit
Autoscroll
slow
fast
+/-
esc
set tempo
stop
Author
[Main Part 1]

e|----------10----------10-------10------------------------------------------|
B|----10----------10----------10------10-------------------------------------|
G|---------------------------------------------------------------------------|
D|---------------------------------------------------------------------------|
A|---------------------------------------------------------------------------|
E|---------------------------------------------------------------------------|

e|---------------------------------------------------------------------------|
B|----9h10--9h10----8----7h8p7----6------------------------------------------|
G|-------------------------------------7-------------------------------------|
D|---------------------------------------------------------------------------|
A|---------------------------------------------------------------------------|
E|---------------------------------------------------------------------------|

e|----------10----------10-------10------------------------------------------|
B|----10----------10----------10------10-------------------------------------|
G|---------------------------------------------------------------------------|
D|---------------------------------------------------------------------------|
A|---------------------------------------------------------------------------|
E|---------------------------------------------------------------------------|

e|---------------------8h6---------------------------------------------------|
B|----9h10--8--8--7h8-------10--8--------------------------------------------|
G|---------------------------------------------------------------------------|
D|---------------------------------------------------------------------------|
A|---------------------------------------------------------------------------|
E|---------------------------------------------------------------------------|

e|----------10----------10-------10------------------------------------------|
B|----10----------10----------10------10-------------------------------------|
G|---------------------------------------------------------------------------|
D|---------------------------------------------------------------------------|
A|---------------------------------------------------------------------------|
E|---------------------------------------------------------------------------|

e|----------8--8-------------------------------------------------------------|
B|----9h10--------10h8-------------------------------------------------------|
G|----------------------10----7----------------------------------------------|
D|---------------------------------------------------------------------------|
A|---------------------------------------------------------------------------|
E|---------------------------------------------------------------------------|

e|--------------3/5----5/8----8/11--10---------------------------------------|
B|---------4/6--------------------------9h10---------------------------------|
G|----5/7--------------------------------------10~---------------------------|
D|---------------------------------------------------------------------------|
A|---------------------------------------------------------------------------|
E|---------------------------------------------------------------------------|


[Main Part 2]

e|----17-----17--------17------17--------17------16h17-----------------------|
B|-------18----------------18----------------18---------18--15---------------|
G|---------------------------------------------------------------------------|
D|---------------------------------------------------------------------------|
A|---------------------------------------------------------------------------|
E|---------------------------------------------------------------------------|

e|----17-----17--------17------17--------17------16h17-----------------------|
B|-------18----------------18----------------18---------18/20----------------|
G|-------------------------------------------------------------17------------|
D|---------------------------------------------------------------------------|
A|---------------------------------------------------------------------------|
E|---------------------------------------------------------------------------|

e|----17-----17--------17------17--------17------16h17-----------------------|
B|-------18----------------18----------------18---------18--15---------------|
G|---------------------------------------------------------------------------|
D|---------------------------------------------------------------------------|
A|---------------------------------------------------------------------------|
E|---------------------------------------------------------------------------|

e|------------4h5-----------10-----------------------------------------------|
B|-----------------3----11------9h10-----------------------------------------|
G|-------------------------------------10~-----------------------------------|
D|----8----9-----------------------------------------------------------------|
A|---------------------------------------------------------------------------|
E|---------------------------------------------------------------------------|


[Bridge]

e|-------------------------------------------------------------------------------------| (x4)
B|----1----4--1--4-3-4----1----4--1--4-3-4----1----4--1--4-3-4----1-4-3-4--1-4-3-4-----|
G|-------------------------------------------------------------------------------------|
D|-------------------------------------------------------------------------------------|
A|-------------------------------------------------------------------------------------|
E|-------------------------------------------------------------------------------------|

      hold fisrt note  
e|-------------------------------------------------------------------------------|
B|----1/10~----------------------------------------------------------------------|
G|-------------------------------------------------------------------------------|
D|-------------------------------------------------------------------------------|
A|-------------------------------------------------------------------------------|
E|-------------------------------------------------------------------------------|


[Main Part 1]

e|----------10----------10-------10------------------------------------------|
B|----10----------10----------10------10-------------------------------------|
G|---------------------------------------------------------------------------|
D|---------------------------------------------------------------------------|
A|---------------------------------------------------------------------------|
E|---------------------------------------------------------------------------|

e|---------------------------------------------------------------------------|
B|----9h10--9h10----8----7h8p7----6------------------------------------------|
G|-------------------------------------7-------------------------------------|
D|---------------------------------------------------------------------------|
A|---------------------------------------------------------------------------|
E|---------------------------------------------------------------------------|

e|----------10----------10-------10------------------------------------------|
B|----10----------10----------10------10-------------------------------------|
G|---------------------------------------------------------------------------|
D|---------------------------------------------------------------------------|
A|---------------------------------------------------------------------------|
E|---------------------------------------------------------------------------|

e|---------------------8h6---------------------------------------------------|
B|----9h10--8--8--7h8-------10--8--------------------------------------------|
G|---------------------------------------------------------------------------|
D|---------------------------------------------------------------------------|
A|---------------------------------------------------------------------------|
E|---------------------------------------------------------------------------|

e|----------10----------10-------10------------------------------------------|
B|----10----------10----------10------10-------------------------------------|
G|---------------------------------------------------------------------------|
D|---------------------------------------------------------------------------|
A|---------------------------------------------------------------------------|
E|---------------------------------------------------------------------------|

e|----------8--8-------------------------------------------------------------|
B|----9h10--------10h8-------------------------------------------------------|
G|----------------------10----7----------------------------------------------|
D|---------------------------------------------------------------------------|
A|---------------------------------------------------------------------------|
E|---------------------------------------------------------------------------|

e|--------------3/5----5/8----8/11--10---------------------------------------|
B|---------4/6--------------------------9h10---------------------------------|
G|----5/7--------------------------------------10~---------------------------|
D|---------------------------------------------------------------------------|
A|---------------------------------------------------------------------------|
E|---------------------------------------------------------------------------|


[Main Part 2]

e|----17-----17--------17------17--------17------16h17-----------------------|
B|-------18----------------18----------------18---------18--15---------------|
G|---------------------------------------------------------------------------|
D|---------------------------------------------------------------------------|
A|---------------------------------------------------------------------------|
E|---------------------------------------------------------------------------|

e|----17-----17--------17------17--------17------16h17-----------------------|
B|-------18----------------18----------------18---------18/20----------------|
G|-------------------------------------------------------------17------------|
D|---------------------------------------------------------------------------|
A|---------------------------------------------------------------------------|
E|---------------------------------------------------------------------------|

e|----17-----17--------17------17--------17------16h17-----------------------|
B|-------18----------------18----------------18---------18--15---------------|
G|---------------------------------------------------------------------------|
D|---------------------------------------------------------------------------|
A|---------------------------------------------------------------------------|
E|---------------------------------------------------------------------------|

e|------------4h5-----------10-----------------------------------------------|
B|-----------------3----11------9h10-----------------------------------------|
G|-------------------------------------10~-----------------------------------|
D|----8----9-----------------------------------------------------------------|
A|---------------------------------------------------------------------------|
E|---------------------------------------------------------------------------|


[Main Part 1]

e|----------10----------10-------10------------------------------------------|
B|----10----------10----------10------10-------------------------------------|
G|---------------------------------------------------------------------------|
D|---------------------------------------------------------------------------|
A|---------------------------------------------------------------------------|
E|---------------------------------------------------------------------------|

e|---------------------------------------------------------------------------|
B|----9h10--9h10----8----7h8p7----6------------------------------------------|
G|-------------------------------------7-------------------------------------|
D|---------------------------------------------------------------------------|
A|---------------------------------------------------------------------------|
E|---------------------------------------------------------------------------|

e|----------10----------10-------10------------------------------------------|
B|----10----------10----------10------10-------------------------------------|
G|---------------------------------------------------------------------------|
D|---------------------------------------------------------------------------|
A|---------------------------------------------------------------------------|
E|---------------------------------------------------------------------------|

e|---------------------8h6---------------------------------------------------|
B|----9h10--8--8--7h8-------10--8--------------------------------------------|
G|---------------------------------------------------------------------------|
D|---------------------------------------------------------------------------|
A|---------------------------------------------------------------------------|
E|---------------------------------------------------------------------------|

e|----------10----------10-------10------------------------------------------|
B|----10----------10----------10------10-------------------------------------|
G|---------------------------------------------------------------------------|
D|---------------------------------------------------------------------------|
A|---------------------------------------------------------------------------|
E|---------------------------------------------------------------------------|

e|----------8--8-------------------------------------------------------------|
B|----9h10--------10h8-------------------------------------------------------|
G|----------------------10----7----------------------------------------------|
D|---------------------------------------------------------------------------|
A|---------------------------------------------------------------------------|
E|---------------------------------------------------------------------------|

e|--------------3/5----5/8----8/11--10---------------------------------------|
B|---------4/6--------------------------9h10---------------------------------|
G|----5/7--------------------------------------10~---------------------------|
D|---------------------------------------------------------------------------|
A|---------------------------------------------------------------------------|
E|---------------------------------------------------------------------------|

 (hold and vibrate last note)
 
 
 
************************************
| h   Hammer-on
| p   Pull-off
| b   Bend
| v   Vibrate
| /   Slide up
************************************
Suggest correction
Creating personal tab
Creating personal tab
You can edit any tab online and save it as your Personal.

You can edit, replace or remove any tab part or add personal notes – all changes will be seen only by you.

Personal tabs can be accessed anytime from any device, even offline.
Learn more »
Give kudos to tab author, rate the tab!
1 2 3 4 5
comments
print report bad tab
guest
You may want to rate the tab now too:
select rating
Wanna post a correction for this tab? Suggest correction