Oops, an error
Loading. Please wait.

Cavatina Tab

version 1
version 1

Whole song

Interactive

403,079 views 624 this week
11 commentsread comments
1 2 3 4 5
x 76
add to favorites
launch autoscroll
font size
0
reset
how to read this tab
guitar tuner
Autoscroll
slow
fast
+/-
esc
set tempo
stop
Help us to improve Ultimate-Guitar.com Take our survey!
×
Author
Cavatina (Theme to the Deer Hunter)


E|--7----------------7-------------------------9------------------|
B|----------5-----------------9-------10--12---------10-----------|
G|-------4-----4-----------8-----8----------------9------9--------|
D|----6-----------6-----6-----------6---------11------------11----|
A|-------------------6--------------------------------------------|
E|--0----------------------------------9--------------------------|

E|---------------------------7--9---------------------------------|
B|------------10---------10-----------10--------------------------|
G|---------9------9----------------9------9--------------8--------|
D|-----11------------11---------7------------7--------7-----7-----|
A|--9----------------------------------------------9--------------|
E|------------------------7---------------------7-----------------|

E|--7------7--------------------------------5--4--4----------------|
B|-----10-----------9--------------------------------------2-------|
G|---------------8-----8--------------3-----------------2-----2----|
D|------------9-----------9--------4-----4-----------2-----------2-|
A|--9---------------------------6-----------------0----------------|
E|---------0-----------------0-------------------------------------|

E|--2-----------------0--2-----------------0-----------------0----|
B|-----------2--------------------0-----------------0-------------|
G|--------2-----2--------------0-----0-----------0-----0----------|
D|-----4-----------4--------0-----------0-----2-----------2-------|
A|--5--------------------------------------3-----------------2----|
E|-----------------------3----------------------------------------|

E|-----------------------2-----------0-----------------0-----0----|
B|--------0--------------------4--------------------0-----0-------|
G|-----2-----2-----------2--4--2-----2-----1-----1----------------|
D|--4-----------4-----4-----------4-----4-----2-------------------|
A|-----------------2----------------------------------------------|
E|-----------------------------------0----------------------------|

E|--4--7--11--12-----------------12--------------11--9--9--11h-12-|
B|----------------------9------------------9----------------------|
G|-------------------9-----9------------9-----9-------------------|
D|----------------9-----------9------9------------9---------------|
A|-------------9------------------9-------------------------------|
E|------------------------------------------------------0---------|

E|--11--9-----------------7----------------------------------------|
B|---------12--10-----10--------7-----9--------------------------3-|
G|---------------------------8-----------------8--------------4----|
D|------------------------7-----7-----------9-----9--------2-------|
A|-----------------9---------------9-----7-----------7-------------|
E|--------------7------7--------------0-----------------0----------|

E|-0--2*--4-----------------5-----------------6-----------------7-|
B|-----------------2-----------------7-----------------7----------|
G|--------------2-----2-----------5-----5-----------6-----6-------|
D|-----------2-----------2-----7-----------7-----8-----------8----|
A|--------0-----------------5-----------------7-----------------6-|
E|----------------------------------------------------------------|

E|-----------------7-----------------12-----------11--12--12------|
B|--0-----7-----0-----0-----7-----0---------0---------------------|
G|-----8-----8-----------7-----7---------0-----9------------------|
D|-----------------0--------------------------------------10------|
A|---------------------------------------------------------9------|
E|------------------------------------8---------------------------|

E|--8--8--10--10--7--7--8--8--5--7--8--12-------------------------|
B|----------------------------------------------------------------|
G|--------------------------------------9--5--5--7--7--4--4--5----|
D|----------------------------------------------------------------|
A|----------------------------------------------------------------|
E|----------------------------------------------------------------|

E|-----------------------------------------2-----------------2----|
B|--------------------------------------2-----2-----------3-------|
G|----------------------------------------------------------------|
D|--7--4--2--------------------------2-----------2-----4----------|
A|-----------3--2-----------------1-----------------2-------------|
E|-----------------5--3--2--3--5-----------------------------2----|

E|--------------------------------------------------------3-------|
B|--------------------3--------------------------------4-----4----|
G|-----------------3-----3--------------------------3-----------3-|
D|--2--4--------3-----------3--3-----1-----1--3--5----------------|
A|--------5-----------------------1-----1--------4----------------|
E|-----------5-----------------2-----2----------------------------|

E|-----------------------------0----------------------------------|
B|--------------------------0-----0--------------5--------2--0----|
G|--------------------------------------------4-----4-------------|
D|--8-----6-----6--8--9--------------2-----2-----------2----------|
A|-----6-----6-----------7----------------------------------------|
E|--7-----------------4-----------------4--------------------2----|

E|----------------------------------------------------------------|
B|-----------------------------------2--0-------------------------|
G|--------2-----------------2--------------------1-----------6----|
D|-----1-----1-----------1-----1--------------0-----0-----------7-|
A|--2-----------2-----2-----------2--------2-----------2--0-------|
E|-----------------2--------------------0-------------------------|

E|--------------------0-------------------------------------------|
B|-----------------0-----0--------------4-----0-------------------|
G|--------------2-----------2-----2--------------2-----2-----1----|
D|--6--4--2--2-----------------------4-----1--------2-----4-----1-|
A|-----------------------------2----------------------------------|
E|-----------2-----------------------------------------0----------|

E|-----------------0--4--5---|------------------------------------|
B|--------0-----0------------|------------------------------------|
G|-----1-----1---------------|------------------------------------|
D|--2------------------------|------------------------------------|
A|---------------------------|------------------------------------|
E|---------------------------|------------------------------------|

At this po|nt you play from the beginning again up to the * then continue by
playing the ending tab shown below:

E|--4-----------------2-----------------2-----------------0-------|
B|-----------2-----------------2-----------------0----------------|
G|--------2-----2-----------2-----2-----------0-----0-----------0-|
D|-----2-----------2-----4-----------4-----0-----------0-----2----|
A|--0-----------------5-----------------------------------3-------|
E|--------------------------------------3-------------------------|

E|-----------------------------------2-----------0----------------|
B|--0--------5-----------------------------4----------------------|
G|-----0--------------2--------------2--4--2-----2-----1--------1-|
D|--------2--------2-----2--------4-----------4-----4-----1--2----|
A|--------------4-----------4--2----------------------------------|
E|-----------2-----------------------------------0----------------|

E|-----------0--4--7--11--12-------------------------2--4--2------|
B|--0-----0------------9-------------4--5---------5-----------5---|
G|-----1---------------9-------------2------------2---------------|
D|---------------------9-------------2------------4---------------|
A|---------------------9-------------4------------2---------------|
E|---------------------9-------------2----------------------------|

E|--0---------------------|
B|------------------------|
G|--2--4------------------|
D|--4--6------------------|
A|------------------------|
E|--0---------------------|

And that's cavatina, a hard tab to play but worth it. This tab has been
tweaked from another to what i think sounds right when actually played with the
song. Any questions email me at punch_the_baby@hotmail.com


************************************
| h   Hammer-on
************************************
Suggest correction
comments
print report bad tab
11 comments total. Showing first comments. show 1 bad comment
+6 reply
tuluks 675 Feb 18, 2007 02:31 PM

gud tabbing mate. and beautiful piece.

+17 reply
bumface 80 Jun 12, 2008 09:59 AM

Please feel free to correct those mistakes then majorsixth and make this piece better, don't just say "too many mistakes" not helpful at all...

guest
You may want to rate the tab now too:
select rating
Wanna post a correction for this tab? Suggest correction