Oops, an error
Loading. Please wait.

Duel Of The Fates Tab

version 2
version 2

Whole song

Interactive

34,293 views 186 this week
3 commentsread comments
1 2 3 4 5
excellent!
x 18
add to favorites
launch autoscroll
font size
0
reset
how to read this tab
guitar tuner
Tab Pro tools
  • play this tab
  • loop segment
  • change instrument
  • show fretboard
  • metronome
Autoscroll
slow
fast
+/-
esc
set tempo
stop
-------------------------------------------------------------------------------
                           Duel Of The Fates - Distorted
-------------------------------------------------------------------------------
Tabbed by: Gernt (myspace.com/kuntinuum)
Email: grant@tinybackyard.com

Tuning: Standard


INTRO (Maestoso)
Guitar 1
e|---------------------------------------------------|
B|---------------------------------------------------|
G|---------------------------------------------------|
D|-5-5~------6-3-3~------8-8~------9-6-6~------------|
A|-5-5~------6-3-3~------8-8~------9-6-6~------------|
E|-3-3~------4-1-1~------6-6~------7-4-4~------------|
 Kor-ah     Mah-tah     Kor-ah   Rah-tah-mah

Guitar 2 Is Silent For Intro


Guitar 1
VERSE PT. 1 (Allegro)
e|-------------------------|
B|-------------------------|
G|-------------------------| [REPEAT x4]
D|-------------------------| Repeat Until Guitar 2 Comes In,
A|---3------------3--------| Then Switch To Verse Pt. 2
E|-6---6p5p3----6---6p5p3--|

VERSE PT. 2
e|-------------------------|
B|-------------------------|
G|---5------------5--------| [REPEAT x4]
D|-8---8p7p5----8---8p7p5--| This part softens so that
A|-------------------------| Guitar 2 stands out
E|-------------------------|

VERSE PT. 3
e|-------------------------|
B|-------------------------|
G|---6------------6--------| [REPEAT x4]
D|-9---9p8p6----9---9p8p6--|
A|-------------------------|
E|-------------------------|


Guitar 2
VERSE PT. 2
e|---------------------------|
B|---------------------------|
G|---------5-------5---------| [REPEAT x2]
D|-5-7-8---------------8-7-5-| You should use a small amount
A|-------------5-------------| of delay in these parts
E|---------------------------|


VERSE PT. 3
e|---------------------------|
B|---------------------------|
G|---------6-------6---------| [REPEAT x2]
D|-6-8-9---------------9-8-6-|
A|-------------6-------------|
E|---------------------------|


Guitar 1
CHORUS
e|---------------------------|
B|---------------------------|
G|-7-7---7-7---7-7----8-5----| [REPEAT x2]
D|-5-5---5-5---5-5----6-3----|
A|---------------------------|
E|---------------------------|

Guitar 2
e|---------------------------|
B|---------------------------|
G|---------------------------| [REPEAT x2]
D|-5-5---5-5---5-5----6-3----|
A|-x-x---x-x---x-x----x-x----|
E|-3-3---3-3---3-3----4-1----|


Guitar 1
OUTRO
e|-------------------------|
B|-------------------------|
G|-------------------------| [REPEAT x2]
D|-------------------------|
A|---3------------3--------|
E|-6---6p5p3----6---6p5p3--|


Guitar 2
e|-------------------------|
B|-------------------------|
G|----------------5--------| [REPEAT x2]
D|--------------8---8p7p5--| Comes in as shown here
A|-------------------------|
E|-------------------------|


Guitar 3
e|----------------8----------|
B|-------------11---11p10p8--|
G|---------------------------| [REPEAT x1]
D|---------------------------| Comes in the second time
A|---------------------------| around
E|---------------------------|

All Guitars
e|------|
B|------|
G|------|
D|-5~---|
A|-5~---|
E|-3~---|

That's it! :) I tabbed all of this in the morning after insomnia. Why I tabbed Duel of 
Fates, I have no clue. But have fun! ^^

| /  slide up
| \  slide down
| h  hammer-on
| p  pull-off
| ~  let ring
| +  harmonic
| x  Mute note
===============================================================================
comments
print report bad tab
3 comments total.
0 reply
p_a_morgan wrote on February 10 2010, 03:46 pm

Awesome..thanks!

0 reply
p_a_morgan wrote on February 10 2010, 03:46 pm

awesome..thanks a lot man!

0 reply
CheesePopcorn wrote on September 10 2010, 03:25 pm

nice.....i have to play this song on clarinet lol

I want to post or [tab]
guest
You may want to rate the tab now too:
select rating
Please do not post tabs as comments. Select "correction" instead!