Oops, an error
Loading. Please wait.

Harry Potter Theme Song Tab

796,760 views 3,213 this week
35 commentsread comments
1 2 3 4 5
accurate
x 221
add to favorites
launch autoscroll
font size
0
reset
how to read this tab
guitar tuner
Autoscroll
slow
fast
+/-
esc
set tempo
stop
Help us to improve Ultimate-Guitar.com Take our survey!
×
Author
John Williams: Harry Potter


E|---0-3-2-0--7-5--2---0-3-2---2-------|
B|-0-------------------------4---0-----|
G|-------------------------------------|
D|-------------------------------------|
A|-------------------------------------|
E|-------------------------------------|

E|---0--3-2-0--7-10-9-8--5-8-7-6--3-0|
B|-0---------------------------------|
G|------------------------------3----|
D|-----------------------------------|
A|-----------------------------------|
E|-----------------------------------|

E|-3-7--3-7--3-8-7-6--6-7-3-2-0-8-7|
B|---------------------------------|
G|---------------------------------|
D|---------------------------------|
A|---------------------------------|
E|---------------------------------|

E|-3-7--3-7--3-10-9-8--5--8-7-6---3-0|
B|-----------------------------------|
G|------------------------------3----|
D|-----------------------------------|
A|-----------------------------------|
E|-----------------------------------|
Suggest correction
comments
print report bad tab
35 comments total. Showing first comments. show 3 bad comments
guest
You may want to rate the tab now too:
select rating
Wanna post a correction for this tab? Suggest correction