Oops, an error
Loading. Please wait.

Harry Potter Theme Song Tab

975,251 views 4,893 this week
42 commentsread comments
1 2 3 4 5
x 321
add to favorites
launch autoscroll
font size
0
reset
how to read this tab
guitar tuner
Autoscroll
slow
fast
+/-
esc
set tempo
stop
Author
Tuning
E A D G B E
John Williams: Harry Potter


E|---0-3-2-0--7-5--2---0-3-2---1-------|
B|-0-------------------------4---0-----|
G|-------------------------------------|
D|-------------------------------------|
A|-------------------------------------|
E|-------------------------------------|

E|---0--3-2-0--7-10-9-8--5-8-7-6--3-0|
B|-0---------------------------------|
G|------------------------------3----|
D|-----------------------------------|
A|-----------------------------------|
E|-----------------------------------|

E|-3-7--3-7--3-8-7-6--6-7-3-2-0-8-7|
B|---------------------------------|
G|---------------------------------|
D|---------------------------------|
A|---------------------------------|
E|---------------------------------|

E|-3-7--3-7--3-10-9-8--5--8-7-6---3-0|
B|-----------------------------------|
G|------------------------------3----|
D|-----------------------------------|
A|-----------------------------------|
E|-----------------------------------|
Show proposed correction Suggest correction
comments
print report bad tab
42 comments total. Showing first comments.
+3 reply
St>>JiMmY1 10 Feb 13, 2006 01:54 PM

i think u should bring it up a couple strings

+4 reply
xo.pepper.nose 10 Jan 24, 2007 08:03 AM

some of it doesnt sound right... i love harry potter though -emily-

+4 reply
crystal0615 72 Jul 31, 2007 12:41 PM

try it with CAPO 1, i think it sounds better

guest
You may want to rate the tab now too:
select rating
Wanna post a correction for this tab? Suggest correction