Oops, an error
Loading. Please wait.

Harry Potter Theme Tab

version 2
version 2

Whole song

7,771 views 15 this week
no commentswrite comment
1 2 3 4 5
x 5
add to favorites
launch autoscroll
font size
0
reset
how to read this tab
guitar tuner
Autoscroll
slow
fast
+/-
esc
set tempo
stop
Help us to improve Ultimate-Guitar.com Take our survey!
×
Author
Difficulty
novice
---------------------------------------------------------------------------
                             Harry Potter - Soundtrack
---------------------------------------------------------------------------
Tabbed by: DaniNani                     

Tuning: Standard

e|----------------7--5--2--0--3--2-----1-------------------7--10--9--8----|
B|-0--5--8--7--5--------------------3----0---0--5--8--7--5-----------------|
G|------------------------------------------------------------------------|
D|------------------------------------------------------------------------|
A|------------------------------------------------------------------------|
E|------------------------------------------------------------------------|

e|-5--8--7--6-------------------------------------------------------------|
B|-------------0--8--5----8--12--8--12--8--15--14--13--10--13--12--11--0--|
G|------------------------------------------------------------------------|
D|------------------------------------------------------------------------|
A|------------------------------------------------------------------------|
E|------------------------------------------------------------------------|

e|------------------------------------------------------------------------|
B|-8--12----8--12--8--12--8--15--14--13--10--13--12--11--0--8--5----------|
G|------------------------------------------------------------------------|
D|------------------------------------------------------------------------|
A|------------------------------------------------------------------------|
E|------------------------------------------------------------------------|


Suggest correction
comments
print report bad tab
guest
You may want to rate the tab now too:
select rating
Wanna post a correction for this tab? Suggest correction