Oops, an error
Loading. Please wait.

Indiana Jones Main Theme Tab

64 views 18 this week
no commentswrite comment
1 2 3 4 5
2 more votes to show rating
add to favorites
launch autoscroll
font size
0
reset
how to read this tab
guitar tuner
Autoscroll
slow
fast
+/-
esc
set tempo
stop
Help us to improve Ultimate-Guitar.com Take our survey!
×
Author
Artist: John Williams
Song: Indiana Jones Main Theme
Tabbed by: Geoff Pippin
Email: jorff2@hotmail.com
Tuning: Standard



[Opening Chords]

    E     E  E  E  E  E
e|-(0)---(0)(0)(0)(0)(0)----|
B|-(0)---(0)(0)(0)(0)(0)----|
G|--4-----4--4--4--4--4-----|
D|--6-----6--6--6--6--6-----|
A|--7-----7--7--7--7--7-----|
E|--------------------------|



[Riff 1]

e|------------------------------------------------------------------------------------|
B|------------------------------------------------------------------------------------|
G|-----------------------------------10-------------7--9------------------7--9-10-----|
D|----------10-------------------7-9-------7--9-10------------------10----------------|
A|--7--8-10-----------7-8----10-----------------------------7--8-10-------------------|
E|----------------10------------------------------------------------------------------|

e|------------------------------------------------|
B|------------------------------------------------|
G|---------9---------9---------9---------9--------|
D|------------12--------12--------12-------12-----|
A|--10--10--------10--------10--------10----------|
E|------------------------------------------------| 2x



[Riff 2]

(Section 1)

e|------------------------------------------------------------------------------------|
B|------------------------------------------------------------------------------------|
G|------------------------9~-------------------------9~---7--9-10~---7--10-9-7--------|
D|-----------------------------------------------------------------------------10-----|
A|--7--10-8--------8-7-10------7--10-8--------8-7-10----------------------------------|
E|-------------10-------------------------10------------------------------------------|

e|---------------------------------------------|
B|---------------------------------------------|
G|------8--------------------------------------|
D|--10----12---------12---------12-10p9-10~----|
A|-----------10p9-10----10p9-10----------------|
E|---------------------------------------------|

(Section 2)

e|------------------------------------------------------------------------------------|
B|------------------------------------------------------------------------------------|
G|------------------------9~----------------------------------------------------9~----|
D|------------------------------------------------------------------------------------|
A|--7--10-8--------8-7-10------7--10-8--------8-7---------7--10-8--------8-7-10-------|
E|-------------10-------------------------10------10-8~--------------10---------------|

e|---------------------------------------------------------------------|
B|---------------------------------------------------------------------|
G|--7--9-10-------10-------10-8p7-8~----10-------10-------10-8p7-8~----|
D|----------8p7-8----8p7-8-----------------8p7-8----8p7-8--------------|
A|---------------------------------------------------------------------|
E|---------------------------------------------------------------------|

e|--------------------------------------------------------|
B|--------------------------------------------------8~----|
G|--10-------10-------10-8p7-8-------8-------8-8h10-------|
D|-----8p7-8----8p7-8----------6p5-6---6p5-6--------------|
A|--------------------------------------------------------|
E|--------------------------------------------------------|



[Riff 1 Reprise]

e|------------------------------------------------------------------------------------|
B|------------------------------------------------------------------------------------|
G|-----------------------------------10-------------7--9------------------7--9-10-----|
D|----------10-------------------7-9-------7--9-10------------------10----------------|
A|--7--8-10-----------7-8----10-----------------------------7--8-10-------------------|
E|----------------10------------------------------------------------------------------|

e|-------------------------------------------------------|
B|-------------------------------------------------------|
G|---------9---------9---------9---------10--9--7--------|
D|------------12--------12--------12--------------10~----|
A|--10--10--------10--------10--------10-----------------|
E|-------------------------------------------------------| Repeat 1x one fret higher



************************************

| h   Hammer-on
| p   Pull-off
| ~   Vibrato

************************************
Suggest correction
Give kudos to tab author, rate the tab!
1 2 3 4 5
comments
print report bad tab
guest
You may want to rate the tab now too:
select rating
Wanna post a correction for this tab? Suggest correction