Oops, an error
Loading. Please wait.

Jurassic Park Theme Bass Tab

version 1
version 1

Whole song

Interactive

14,904 views 69 this week
1 commentread comment
1 2 3 4 5
excellent!
x 14
add to favorites
launch autoscroll
font size
0
reset
guitar tuner
Autoscroll
slow
fast
+/-
esc
set tempo
stop
Help us to improve Ultimate-Guitar.com Take our survey!
×
Author
Here it is. Sounds right to me. Listen to the song first then complain.



G|-------------------------------------9-9-12-12---11----9---------|
D|--12-11-12----12-11-12----12-11-12------------------12-----11----|
A|--------------------------------------------------------------12-|
E|-----------------------------------------------------------------|

G|---11----9-----14----12--11--11--9--9--|
D|------12----------12-------------------|
A|---------------------------------------|
E|---------------------------------------|

G|-----------------------------------------------------------|
D|--12-11-12---------12-11-12---------12-11-11-12------------|
A|-----------12-10------------12-10---------------12----15---|
E|---------------------------------------------------10------|

Suggest correction
comments
print report bad tab
1 comment total.
+1 reply
brimtastic 10 wrote on July 22 2010, 09:04 am

Nice tab, except it's in Bb major, not D (move everything down 4 frets to transpose).

guest
You may want to rate the tab now too:
select rating
Please do not post tabs as comments. Select "correction" instead!