Oops, an error
Loading. Please wait.

Jurassic Park Theme Tab

version 2
version 2

Whole song

Interactive

17,277 views 42 this week
1 commentread comment
1 2 3 4 5
x 9
add to favorites
launch autoscroll
font size
0
reset
how to read this tab
guitar tuner
×
Best way to learn
"Jurassic Park Theme"
Autoscroll
slow
fast
+/-
esc
set tempo
stop
Author
Tuning
Capo
E A D G B E
2nd fret
-------------------------------------------------------------------------------
                             Welcome to Jurassic Park - John Williams
-------------------------------------------------------------------------------
Tabbed by: Crusher
Email: XCrusherX@gmail.com

Tuning: Standard, Capo on the 2nd fret



     Q    E  S S Q    E  S S    E.  S E.  S Q    E  S S  
e||--------------------------|------------1-1-------0---|
B||--1-------1-0-1-------1-0-|--1---3-3---------------1-|
G||--------------------------|--------------------------|
D||--2----2------3----3------|--2-----3-----3-------2---|
A||--3----3------3----3------|--3-----3-----3-------3---|
E||--------------------------|-------------------3------|


    E.  S E  S S Q    E  S S    E.  S E.  S Q    E  S S  
e|-----------0-----------3---|--1---0-0-----------------|
B|--3---0------1-3---------1-|------------3-3-------1-0-|
G|--------0--0---------------|--------------------------|
D|--3--------0---3-------2---|--3-----2-----0-----------|
A|--3------------3-------3---|--3-----3-----0-----------|
E|--------3-----------3------|-------------------3------|


    E  E  E  S S E  E  E  S S    E  S S E  S S E  E  E  S S  
e|----------------------------|--------------1-1--------0---|
B|--1--------1-0-1--------1-0-|--1----3-3-----------------1-|
G|--0-----0------0-----0------|--0------0------------0------|
D|-----2-----2------3-----3---|-----2----------3--0-----2---|
A|----------------------------|------------3------------3---|
E|----------------------------|-----------------------------|


    E  S S E  S S E  Q    S S    E  S S E  S S E  E  E  E   
e|------------0-----------3---|--1----0-0---------------3--|
B|--3----0------1-3---------1-|--1------0----3-3-----0-----|
G|-----0---0--0------0----0---|--2------0------2-----0-----|
D|--3---------0---3-------0---|----------------3-----------|
A|--3-------------3-----------|----------------------------|
E|----------------------------|----------------------------|


    E  S S E  S S E  E  E  E     E  S S E  S S E  E  E  E   
e|-------------------0--0-----|--------------0-1--3--------|
B|-----2-0-2----3-3--------0--|-----2-0-2------------3-----|
G|------------2---------------|------------2---------------|
D|--2------2------2-----2-----|--2------2--2---3--0-----0--|
A|-----4------4------5-----5--|-----4------4---1--3--5--2--|
E|----------------------------|----------------------3-----|


    E  S S E  S S E  E  E  E     E  S S E  S S E  E  E  E   
e|-----0---0----3-3--0--7-----|-----8-7-8----1-1--0--------|
B|-------3----1---------------|----------------------3-----|
G|----------------0-----0--4--|--2-------------------------|
D|--2------2------2-----------|--2------7------------------|
A|--3------3------2-----7-----|--5------7------3-----5-----|
E|-----3------3------3--7--3--|-----8------0---1--1--3--3--|


    S S E  E  E  S S E  E  E     S S S E.  E  E  Q.      
e|----------------------------|-------------------------|
B|--1-0-1--------1-0-1--------|--1-0-0-1----------------|
G|---------0------------0-----|------------0-----3------|
D|------------3------------3--|-------------------------|
A|------3------------3--------|------3--------3--3------|
E|----------------------------|------------------1------|


    S S E  E  E  S S E  E  E     S S S E.  E  E  Q    E     E  H.           E    
e|----------------------------|--------------------------|---------------------||
B|--1-0-1--------1-0-1--------|--1-0-0-1---------1----0--|-----1---------------||
G|---------0------------0-----|------------0-------------|---------------------||
D|------------3------------3--|--------------------------|---------------------||
A|------3------------3--------|------3--------3--3-------|-----3---------------||
E|----------------------------|--------------------------|---------------------||



Duration Legend
---------------
W - whole
H - half
Q - quarter
E - 8th
S - 16th
T - 32nd
X - 64th
. - note dotted
|-n-|  - n-tuplets
Suggest correction
comments
print report bad tab
1 comment total.
0 reply
ZachyV 20 May 06, 2013 03:35 PM

awesome! thank you!

guest
You may want to rate the tab now too:
select rating
Wanna post a correction for this tab? Suggest correction