Oops, an error
Loading. Please wait.

Jurassic Park Theme Tab

version 1
version 1

Whole song

Interactive

226,414 views 900 this week
15 commentsread comments
1 2 3 4 5
excellent!
x 146
add to favorites
launch autoscroll
font size
0
reset
how to read this tab
guitar tuner
Autoscroll
slow
fast
+/-
esc
set tempo
stop
Help us to improve Ultimate-Guitar.com Take our survey!
×
Author
Difficulty
novice
I saw a couple people who tabbed this in a different key, and then spelled the name 
Needless to say their tabs weren't exactly spot on, but for anyone wanting to try it in this 
I believe this is pretty close.


e|----------------------------0-0-3-3---2---0-----------2---0-----5---3--2--2--0--0--|
B|--3-2-3----3-2-3----3-2-3---------------3-----2---------3---------3----------------|
G|------------------------------------------------2----------------------------------|
D|-----------------------------------------------------------------------------------|
A|-----------------------------------------------------------------------------------|
E|-----------------------------------------------------------------------------------|

e|-------------------------------------------|
B|--3-2-3-------3-2-3-------3-2-2-3----------|
G|--------2-0---------2-0-----------2---5----|
D|------------------------------------0------|
A|-------------------------------------------|
E|-------------------------------------------|
Suggest correction
comments
print report bad tab
15 comments total. Showing first comments.
0 reply
Jimi's shadow 10 wrote on December 5 2008, 11:44 pm

sounds pretty good,acyually. i think theres a 4 after that last 5.

+2 reply
Exen 10 wrote on January 24 2009, 09:17 pm

Having played it numerous times, I find it 99% correct. However, on the very last D before it moves up to the C, my ear it telling me it needs to actually move to the D (7) then down to the C# (6) and then again to the D to form a more solid cadence. Just an observation, otherwise spot on. Thanks for tabbing it out.

+2 reply
pippin 101 wrote on February 3 2009, 11:44 am

Would be great if you could do more to this, I believe it has more to it after this anyway :)

Nice accuracy though :D

guest
You may want to rate the tab now too:
select rating
Wanna post a correction for this tab? Suggest correction