Oops, an error
Loading. Please wait.

Leaving Home Tab

386 views 1 this week
no commentswrite comment
1 2 3 4 5
please rate
add to favorites
launch autoscroll
font size
0
reset
how to read this tab
guitar tuner
Autoscroll
slow
fast
+/-
esc
set tempo
stop
Help us to improve Ultimate-Guitar.com Take our survey!
×
Author
The London Symphony Orchestra/John Williams
Leaving Home
Superman:The Movie
1978


  00:00
E:---8888888------77777777----------8-6---------8-6-------10-8----7---------------|
B:----------------------------5p4s5-------5p4s5-----5p4s4---------8---------------|
G:----------------------------------------------------------------9---------------|
D:--------------------------------------------------------------------------------|
A:--------------------------------------------------------------------------------|
E:--------------------------------------------------------------------------------|


  01:08
E:-----7-8--6-----7-8--6----88888---66666---|
B:---5----------5---------------------------|
G:------------------------------------------|
D:------------------------------------------|
A:------------------------------------------|
E:------------------------------------------|


  01:31
E:------------------------------------------------------------------------|
B:------------------------------------------------------------------------|
G:-------------------------13-11------------------------------------------|
D:--------9---14-13--11-9-------------------14-18-18--16-14-13------------|
A:----7-7---9-------------------14-12--12-14------------------14-12-------|
E:-----------------------------------------------------------------14-----|     



  01:48
E:-------------------------------------------------------------------------------|
B:-------------------------------------------------------------------------------|
G:-11--11-11-13-9---9-11-----------------------9-11-13-13-14-13-11---------------|
D:-----------------------12--12-14-11-9-7-9------------------------9-7-6-4-------|
A:-------------------------------------------------------------------------------|
E:-------------------------------------------------------------------------------|


  02:10
E:-------19-(19)-17-19-21-19-17-(17)-19------19-17-16----------------------------------------|
B:-15-17--------------------------------17------------17----------19-(19)-21-17----------17--|
G:-------------------------------------------------------16-16-14---------------14-14--------|
D:------------------------------------------------------------------------------------16-----|
A:-------------------------------------------------------------------------------------------|
E:-------------------------------------------------------------------------------------------|



  02:29
E:-------------------------------------------------17-16------------------------------|
B:----------------------------------------17-15-15---------17-------------17----------|
G:-------16-16--14-16-18-16-14-14s16--------------------------16-14-14----------------|
D:----14-----------------------------14--------------------------------16-------------|
A:-14---------------------------------------------------------------------------------|
E:------------------------------------------------------------------------------------|


  02:49
E:-----------------------------------------------------------------------------------------------|
B:-17-----------17---------------------------------14-14-------------14------------12-----12-12--|
G:---------------------------16--------------------------------13-------------11-----------------|
D:----14-16-13-----14-16-13--------------16-16-13--------13-------11----13-------9----11-11----11|
A:------------------------------14-16-13---------------------------------------------------------|
E:-----------------------------------------------------------------------------------------------|

        

  03:19
E:----12-12-10h12-14-12p10-10-12------17-15--15-22-21---17--------------17---17----------14----17|
B:-10----------------------------10------------------------17-15-15-12----------12-12-9-----15---|
G:-----------------------------------------------------------------------------------------------|
D:-----------------------------------------------------------------------------------------------|
A:-----------------------------------------------------------------------------------------------|
E:-----------------------------------------------------------------------------------------------|


  03:45
E:-17----------14---22----19-17-16-------16-16-14h16-18-16-14-14-16-----16-21-21-19-21-22-17-12--|
B:----12-12-9----15----21-------------14----------------------------14-------------------------12|
G:-----------------------------------------------------------------------------------------------|
D:-----------------------------------------------------------------------------------------------|
A:-----------------------------------------------------------------------------------------------|
E:-----------------------------------------------------------------------------------------------|


  04:04
E:------------------|
B:------------------|
G:----------9--18---|
D:----------9--18---|
A:----------7--16---|
E:------------------|



  04:09
E:-----------------------------------------------------------------------------------|
B:------------------------------------------------------14-12----16()-12()--7()------|
G:----------13-13-11-13-15-13-11-11-13------------13-11-------------------------6----|
D:-11-11-11----------------------------11------11---------------------------------4--|
A:------------------------------------------11---------------------------------------|
E:-----------------------------------------------------------------------------------|



  04:26
E:----16-16--------21-21--------23-23-----24-----------------------|
B:-14-------16--16-------19--19-------21---------------------------|
G:-----------------------------------------------------------------|
D:-----------------------------------------------------------------|
A:-----------------------------------------------------------------|
E:-----------------------------------------------------------------|
Suggest correction
Give kudos to tab author, rate the tab!
1 2 3 4 5
comments
print report bad tab
guest
You may want to rate the tab now too:
select rating
Please do not post tabs as comments. Select "correction" instead!