Oops, an error
Loading. Please wait.

Luke Skywalker Theme ukulele

1,010 views 1 this week
4 commentsread comments
1 2 3 4 5
x 3
add to favorites
×
Save as Personal and add changes to this tab that will be seen only by you. Learn more ›
×
You can save this tab as Personal to edit and correct it or add notes. All changes will be seen only by you. Learn more »
launch autoscroll
font size
0
reset
transpose
0
reset
display chords
guitar tuner
edit
Autoscroll
slow
fast
+/-
esc
set tempo
stop
Difficulty
Strumming
There is no strumming pattern for this song yet. and get +5 IQ
----------------------------------------------------------------------------
                             Luke Skywalker Theme
----------------------------------------------------------------------------
Tabbed by:Lord_Hondros
Email:apolosky@roadrunner.com

Tuning:standard (EADGBe)
|-------------------------------------------------8------------------------|
|--------3---5---686-------------3---56---6---3-------8--------------------|
|--4--4---------------4----4--4---------4----------------------------------|
|--------------------------------------------------------------------------|
|--------------------------------------------------------------------------|
|--------------------------------------------------------------------------|

If you find anything wrong with it, feel free to e-mail me. My guitar may have been 
differently while I was playing. Also, I find it's best played an octave higher (act like 
12 is open string).

            
            
Suggest correction
Creating personal tab
Creating personal tab
You can edit any tab online and save it as your Personal.

You can edit, replace or remove any tab part or add personal notes – all changes will be seen only by you.

Personal tabs can be accessed anytime from any device, even offline.
Learn more »
Give kudos to tab author, rate the tab!
1 2 3 4 5
comments
print report bad tab
4 comments total. Showing first comments.
0 reply
posalootly 22 Dec 22, 2015 07:10 PM

this is not a ukulele tab, it is formatted for guitar and here are more words more more more more more more

+1 reply
posalootly 22 Dec 22, 2015 07:11 PM

A |------0----1--3--1------------|-------0--1------1-----5--3----------|
E |---3--------------------------|----3---------------3----------------|
C |-2-------------------2--------|-2-----------2-----------------------|
G |------------------------------|-------------------------------------|

A |-------0--1------5------10-----|--1--0------5----1------------------|
E |----3---------3------3------3--|---------3----------3---------3-----|
C |-2-----------------------------|-----------------------2---2--------|
G |-------------------------------|------------------------------------|


corrected for ukulele.

-1 reply
posalootly 22 Dec 22, 2015 07:13 PM

A |------0----1--3--1------------|-------0--1------1-----5--3----------|
E |---3--------------------------|----3---------------3----------------|
C |-2-------------------2--------|-2-----------2-----------------------|
G |------------------------------|-------------------------------------|

A |-------0--1------5------10-----|--1--0------5----1------------------|
E |----3---------3------6------3--|---------3----------3---------3-----|
C |-2-----------------------------|-----------------------2---2--------|
G |-------------------------------|------------------------------------|


sorry, this one.

guest
Wanna post a correction for this tab? Suggest correction