Oops, an error
Loading. Please wait.

Romance Tab

version 2
version 2

Whole song

5,261 views 15 this week
no commentswrite comment
1 2 3 4 5
excellent!
x 5
add to favorites
launch autoscroll
font size
0
reset
how to read this tab
guitar tuner
Autoscroll
slow
fast
+/-
esc
set tempo
stop
Help us to improve Ultimate-Guitar.com Take our survey!
×
Contributor
Difficulty
Karl Seno 875
advanced
>>>>>>>>>>>>>>>>>>>>>>>>>>>>>>>>>>>>>>>>>>>>>>>>>>>>>>>>>>>>>>>>>>>>>>>>>>>>
                       Romance...
                     by. John Williams
>>>>>>>>>>>>>>>>>>>>>>>>>>>>>>>>>>>>>>>>>>>>>>>>>>>>>>>>>>>>>>>>>>>>>>>>>>>>

Artist: John Williams
Tapped: Karl Seno 
E-mail: krsgravity21@yahoo.com
 > This is dedicated to my friend Jm..:)

Part A:

Intro: 
e||-0-----0-----0-----|
B||---0-----0-----0---|
G||-----0-----0-----0-|
D||-------------------|Play intro not too loud.
A||-------------------|
E||-0-----------------|


e||-7-----7-----7-----|-7-----5-----3-----|-3-----2-----0-----|
B||---0-----0-----0---|---0-----0-----0---|---0-----0-----0---|
G||-----0-----0-----0-|-----0-----0-----0-|-----0-----0-----0-|
D||-------------------|-------------------|-------------------|
A||-------------------|-------------------|-------------------|
E||-0-----------------|-0-----------------|-0-----------------|


e|-0-----3-----7-----|-12----12----12----|-12----10----8-----|
B|---0-----0-----0---|---0-----0-----0---|---0-----0-----0---|
G|-----0-----0-----0-|-----0-----0-----0-|-----0-----0-----0-|
D|-------------------|-------------------|-------------------|
A|-------------------|-------------------|-------------------|
E|-0-----------------|-0-----------------|-0-----------------|


e|-8-----7-----5-----|-5-----7-----8-----|-7-----8-----7-----|
B|---5-----5-----5---|---5-----5-----5---|---7-----7-----7---|
G|-----5-----5-----5-|-----5-----5-----5-|-----8-----8-----8-|
D|-------------------|-------------------|-------------------|
A|-0-----------------|-0-----------------|-------------------|
E|-------------------|-------------------|-7-----------------|

e|-11----8-----7-----|-7-----5-----3-----|-3-----2-----0-----|
B|---7-----7-----7---|---0-----0-----0---|---0-----0-----0---|
G|-----8-----8-----8-|-----0-----0-----0-|-----0-----0-----0-|
D|-------------------|-------------------|-------------------|
A|-------------------|-------------------|-------------------|
E|-7-----------------|-0-----------------|-0-----------------|


e|-7----7----7----|-7----5----3----|-3----2----0----|
B|--0----0----0---|--0----0----0---|--0----0----0---|
G|----0----0----0-|----0----0----0-|---0----0----0--|
D|----------------|----------------|----------------|
A|----------------|----------------|----------------|
E|-0--------------|-0--------------|-0--------------|


e|-2----2----2----|-2----1----2----|-0----0----0----|-0------||
B|--0----0----0---|--0----0----0---|--0----0----0---|--------||
G|----2----2----2-|----2----2----2-|---0----0----0--|--------||
D|----------------|----------------|----------------|--------||
A|-2--------------|-2--------------|------2---------|--------||
e|----------------|----------------|-0---------3----|-0------||





Part B:
                                         
||-4-----4-----4-----|-4-----2-----0-----|-------------------|
||---0-----0-----0---|---0-----0-----0---|-5-----4-----4-----|
||-----1-----1-----1-|-----1-----1-----1-|---2-----2-----2---|
||-------------------|-------------------|-----4-----4-----4-|
||-------------------|-------------------|-------------------|
||-0-----------------|-0-----------------|-0-----------------|

  
||-------------------|-9-----9-----9-----|-9-----11----9-----|
||-4-----3-----4-----|---7-----7-----7---|---7-----7-----7---|
||---2-----2-----2---|-----8-----8-----8-|-----8-----8-----8-|
||-----4-----4-----4-|-------------------|-------------------|
||-------------------|-------------------|-------------------|
||-0-----------------|-7-----------------|-7-----------------|

                                        
||-9-----7-----7-----|-7-----9-----11----|-12----12----12----|
||---9-----9-----9---|---9-----9-----9---|---9-----9-----9---|
||-----9-----9-----9-|-----9-----9-----9-|-----9-----9-----9-|
||-------------------|-------------------|-------------------|
||-------------------|-------------------|-------------------|
||-0-----------------|-0-----------------|-0-----------------|

 
||-12----11----10----|-9-----9-----9-----|-9-----7-----5-----|
||---9-----9-----9---|---5-----5-----5---|---5-----5-----5---|
||-----9-----9-----9-|-----6-----6-----6-|-----6-----6-----6-|
||-------------------|-------------------|-------------------|
||-------------------|-------------------|-------------------|
||-0-----------------|-5-----------------|-5-----------------|

                    
||-4----4----4----|-4-----5-----2-----|-0-----0-----0-----|-0------------||
||--0----0----0---|---0-----0-----0---|---0-----0-----0---|-0------------||
||----2----2----2-|-----2-----2-----2-|-----1-----1-----1-|-1------------||
||----------------|-1-----------------|-2-----------------|-2------------||
||-2--------------|-------------------|-------2-----------|-2------------||
||----------------|-------------------|-------------4-----|-0------------||

Play A-A-B-A 


Every end of a part play:

e|--------|
B|--0--0--| Try it its cute...Adds effect....
G|--------|
D|--------|
A|--------|
E|--------|

Have Fun!
Hope you like it!

Special thanks to my teacher who first thought me how to play guitar....TY

comments
print report bad tab
I want to post or [tab]
guest
You may want to rate the tab now too:
select rating
Please do not post tabs as comments. Select "correction" instead!