Oops, an error
Loading. Please wait.

Romance Tab

version 3
version 3

Whole song

1,735 views 1 this week
no commentswrite comment
1 2 3 4 5
1 last vote to show rating
add to favorites
launch autoscroll
font size
0
reset
how to read this tab
guitar tuner
Autoscroll
slow
fast
+/-
esc
set tempo
stop
Help us to improve Ultimate-Guitar.com Take our survey!
×
Difficulty
advanced
Submited by rhymebusta21
Title: Romance
Artist: John Williams
Album:John Williams the ultimate guitar collection.

e|----7---7---7---7---5---3---3---2---0---0---3---7---12---12---12---12---|
b|-----0---0---0---0---0---0---0---0---0---0---0---0----0----0----0----0--|
g|------0---0---0---0---0---0---0---0---0---0---0---0----0----0----0----0-|
d|------------------------------------------------------------------------|
a|------------------------------------------------------------------------|
e|-0--------------0-----------0-----------0-----------0--------------0----|

e|-10---8---8---7---5---5---7---8---7---8---7---11---8---7---7---5---3----|
b|---0---5---5---5---5---5---5---5---7---7---7----7---7---7---0---0---0---|
g|----0---5---5---5---5---5---5---5---8---8---8----8---8---8---0---0---0--|
d|------------------------------------------------------------------------|
a|----------0-----------0-------------------------------------------------|
e|----------------------------------7-----------7------------0------------|

e|-3---2---0---2---2---2---2---3---2---0---0---0---------------|
b|--0---0---0---0---0---0---0---0---0---0---0---0--------0---0-|
g|---0---0---0---2---2---2---2---2---2---0---0---0-------------|
d|-------------------------1-----------2-----------------------|
a|-----------------------------------------2-------------------|
e|-0-----------2-------------------------------3---0-----------|

e|----7---7---7---7---5---3---3---2---0---0---3---7---12---12---12---12---|
b|-----0---0---0---0---0---0---0---0---0---0---0---0----0----0----0----0--|
g|------0---0---0---0---0---0---0---0---0---0---0---0----0----0----0----0-|
d|------------------------------------------------------------------------|
a|------------------------------------------------------------------------|
e|-0--------------0-----------0-----------0-----------0--------------0----|

e|-10---8---8---7---5---5---7---8---7---8---7---11---8---7---7---5---3----|
b|---0---5---5---5---5---5---5---5---7---7---7----7---7---7---0---0---0---|
g|----0---5---5---5---5---5---5---5---8---8---8----8---8---8---0---0---0--|
d|------------------------------------------------------------------------|
a|----------0-----------0-------------------------------------------------|
e|----------------------------------7-----------7------------0------------|

e|-3---2---0---2---2---2---2---3---2---0---0---0---------------|
b|--0---0---0---0---0---0---0---0---0---0---0---0--------0---0-|
g|---0---0---0---2---2---2---2---2---2---0---0---0-------------|
d|-------------------------1-----------2-----------------------|
a|-----------------------------------------2-------------------|
e|-0-----------2-------------------------------3---0-----------|

e|------4---4---4---4---2---0------------------------------9---9---9---9---|
b|-------0---0---0---0---0---0---5---4---4---4---3---4------7---7---7---7--|
g|--------1---1---1---1---1---1---2---2---2---2---2---3------8---8---8---8-|
d|---------------------------------4---4---4---4---4---4-------------------|
a|-------------------------------------------------------------------------|
e|---0--------------0------------2-------------------------7-----------7---|

e|-11---9---9---7---7---7---9---11---12---12---12---12---11---10---9---9---|
b|---7---7---9---9---9---9---9----9----9----9----9----9----9----9---5---5--|
g|----8---8---9---9---9---9---9----9----9----9----9----9----9----9---6---6-|
d|-------------------------------------------------------------------------|
a|-----------------------------------------------------------------0-------|
e|----------0-----------0------------0--------------0----------------------|

e|-9---9---7---5---4---4---4---4---5---2---0---0---0-------------|
b|--5---5---5---5---5---5---5---5---4---4---0---0---0------0---0-|
g|---6---6---6---6---4---4---4---4---4---4---1---1---1-----------|
d|-----------------------------------------2---------------------|
a|-----0-----------2-----------2---------------2-----------------|
e|-------------------------------------------------4---0---------|

e|------4---4---4---4---2---0------------------------------9---9---9---9---|
b|-------0---0---0---0---0---0---5---4---4---4---3---4------7---7---7---7--|
g|--------1---1---1---1---1---1---2---2---2---2---2---3------8---8---8---8-|
d|---------------------------------4---4---4---4---4---4-------------------|
a|-------------------------------------------------------------------------|
e|---0--------------0------------2-------------------------7-----------7---|

e|-11---9---9---7---7---7---9---11---12---12---12---12---11---10---9---9---|
b|---7---7---9---9---9---9---9----9----9----9----9----9----9----9---5---5--|
g|----8---8---9---9---9---9---9----9----9----9----9----9----9----9---6---6-|
d|-------------------------------------------------------------------------|
a|-----------------------------------------------------------------0-------|
e|----------0-----------0------------0--------------0----------------------|

e|-9---9---7---5---4---4---4---4---5---2---0---0---0-------------|
b|--5---5---5---5---5---5---5---5---4---4---0---0---0------0---0-|
g|---6---6---6---6---4---4---4---4---4---4---1---1---1-----------|
d|-----------------------------------------2---------------------|
a|-----0-----------2-----------2---------------2-----------------|
e|-------------------------------------------------4---0---------|

e|----7---7---7---7---5---3---3---2---0---0---3---7---12---12---12---12---|
b|-----0---0---0---0---0---0---0---0---0---0---0---0----0----0----0----0--|
g|------0---0---0---0---0---0---0---0---0---0---0---0----0----0----0----0-|
d|------------------------------------------------------------------------|
a|------------------------------------------------------------------------|
e|-0--------------0-----------0-----------0-----------0--------------0----|

e|-10---8---8---7---5---5---7---8---7---8---7---11---8---7---7---5---3----|
b|---0---5---5---5---5---5---5---5---7---7---7----7---7---7---0---0---0---|
g|----0---5---5---5---5---5---5---5---8---8---8----8---8---8---0---0---0--|
d|------------------------------------------------------------------------|
a|----------0-----------0-------------------------------------------------|
e|----------------------------------7-----------7------------0------------|

e|-3---2---0---2---2---2---2---3---2---0---0---0---------------|
b|--0---0---0---0---0---0---0---0---0---0---0---0--------0---0-|
g|---0---0---0---2---2---2---2---2---2---0---0---0-------------|
d|-------------------------1-----------2-----------------------|
a|-----------------------------------------2-------------------|
e|-0-----------2-------------------------------3---0-----------|

e|----7---7---7---7---5---3---3---2---0---0---3---7---12---12---12---12---|
b|-----0---0---0---0---0---0---0---0---0---0---0---0----0----0----0----0--|
g|------0---0---0---0---0---0---0---0---0---0---0---0----0----0----0----0-|
d|------------------------------------------------------------------------|
a|------------------------------------------------------------------------|
e|-0--------------0-----------0-----------0-----------0--------------0----|

e|-10---8---8---7---5---5---7---8---7---8---7---11---8---7---7---5---3----|
b|---0---5---5---5---5---5---5---5---7---7---7----7---7---7---0---0---0---|
g|----0---5---5---5---5---5---5---5---8---8---8----8---8---8---0---0---0--|
d|------------------------------------------------------------------------|
a|----------0-----------0-------------------------------------------------|
e|----------------------------------7-----------7------------0------------|

e|-3---2---0---2---2---2---2---3---2---0---0---0---------|
b|--0---0---0---0---0---0---0---0---0---0---0---0--------|
g|---0---0---0---2---2---2---2---2---2---0---0---0-------|
d|-------------------------1-----------2-----------------|
a|-----------------------------------------2-------------|
e|-0-----------2-------------------------------3---0-----|
Suggest correction
Give kudos to tab author, rate the tab!
1 2 3 4 5
comments
print report bad tab
guest
You may want to rate the tab now too:
select rating
Wanna post a correction for this tab? Suggest correction