Oops, an error
Loading. Please wait.

Schindlers List Tab

version 1
version 1

Whole song

Interactive

69,533 views 243 this week
no commentswrite comment
1 2 3 4 5
excellent!
x 19
add to favorites
launch autoscroll
font size
0
reset
how to read this tab
guitar tuner
Autoscroll
slow
fast
+/-
esc
set tempo
stop
Help us to improve Ultimate-Guitar.com Take our survey!
×
Theme from Schindler's List - John Towner Williams (b.1932)
1st version - as recorded by John Williams
2nd version - by Zipidy Doodah, easy version, theme
3rd version - by Christian Ottem, high frets, chord names, theme
******************************************************************************

Theme from Schindler's List - John Towner Williams
as recorded by John Williams

tempo ~65-70ish


e||-------------------|--------------------------|-------------------------|
B||-------------------|--3-----3-----4--3--------|-----------1--3----------|
G||-------------------|--3--0-----0--0-----3-----|--3-----3--2--5--3--2----|
D||--0----------------|-----------------------0--|--1-----1-----0-----4----|
A||-------------------|--------------------------|-----3-----0--------0----|
E||-------------------|--3-----------6-----------|--------1----------------|


e|--------------1-----------|--------------------------|
B|--3-----3-----4--4--3--1--|-----------1--4--3--1-----|
G|--3--0-----0--3-----------|--------2--------------3--|
D|--------------------------|--3--1--------4--3--1--0--|
A|--------------------------|--0-----0-----------------|
E|--3-----------------------|--------------------------|


e|--------------------------|------------------------|--------------------------|
B|--1-----1-----3--1-----1--|--3---------------------|--1-----1-----3--1--------|
G|--0-----------0-----3-----|--2----0--0-------0-----|--0-----------0-----3--2--|
D|-----1-----1--0-----4-----|-------------4-------0--|-----1-----1--0-----4-----|
A|--0-----------------------|--1---------------------|--0-----------------------|
E|--------------------------|-------------6----------|--------------------------|


e|----------------------|--------------------------|--------------3--------|
B|----------------------|--------------3--1--------|-----------3--3--------|
G|--0---------2---------|--3-----3-----0-----3--2--|--0-----3-----3--------|
D|--0---------1----4----|--1-----------0-----4-----|-----0--------0--------|
A|-------3----0---------|-----3-----3--------------|-----------------------|
E|--3-------------------|--------------------------|--3-----------3--------|


e|-----10-8-11--10--5----6-8-----|-----6-8-5--3-2-5--3-------|
B|---------------------4------4--|-----4------4------3-------|
G|-----7--------7------5------5--|-----5------5------3--7----|
D|-----8--------8----------------|----------------------8----|
A|-------------------------------|---------------------------|
E|--3---------------3------------|--3-------------3----------|


e|-----10-8-13--11--5----6-8-----|--------------1-3--5-6-9----|
B|----------13---------4------4--|-----1-3-4--4---1------8----|
G|-----7----0----------5------5--|------------0----------6----|
D|-----8----13-------------------|-----1----------------------|
A|-------------------------------|--0--------------------6----|
E|--3---------------3------------|----------------------------|


e|--3-----3-----4--3--------|-----------1--3--------|--3-----3-----4--3--------|
B|--4--------1--------4-----|--4-----4--3--4--------|--4-----------1-----4-----|
G|--5--5-----------------0--|--5-----------3--------|--5--5-----5-----------0--|
D|--------------------------|--6--3-----3-----------|--------------1-----------|
A|--------------------------|-----------------------|--------------------------|
E|--------------------------|-----------------------|--------------------------|


e|--------------3-----------|----------------6-----------|
B|--4-----4--6--6--4--------|--8------8------9--9--8--6--|
G|-----------7--0-----7-----|--8-------------8-----------|
D|--6--3--6--0--------9-----|-----10-----10-----------5--|
A|--------------------------|----------------------------|
E|--------------------10----|--8-------------------------|


e|-----------1--4--3--1-----|--1-----1-----3--1-----1--|--3--------------------|
B|--------3-----0--------4--|--1-----------1-----4-----|--3----1---------1-----|
G|--3--1-----------3--1--0--|-----1-----1--0-----4-----|------------4-------0--|
D|--0-----0-----------------|--0-----------------3-----|--1---------1----------|
A|--------------------------|--------------------------|-----------------------|
E|--------------------------|--------------------------|-----------------------|


e|--1-----1-----3--1--------|-----------------------|--------------3--1--------|
B|--1-----------1-----4--3--|--1----------3----0----|--4-----4-----1-----4--3--|
G|-----1-----1--0-----4-----|--0----------1---------|--------------0-----4-----|
D|--0-----------------------|-------------0---------|--6--3-----3--------------|
A|--------------------------|--3--------------------|--------------------------|
E|--------------------------|-------13--------------|--------------------------|


e|-----------3--8---------|-----3-1-4--3---------1-----|
B|--------4-----8---------|---------------3----4-------|
G|--5--0--------8---------|-----0------0-----1------1--|
D|------------------------|-----1------1-----3------3--|
A|--3-----------10--------|--3-------------------------|
E|--------------8---------|----------------------------|


e|----1----------------------|--3-1-6--4---------1-------|
B|--4---3--1-0-3--1----------|------6-----3----4---------|
G|--1------1------0----0-----|--0------------1------1----|
D|--3------3------1----1-----|--1---6--------3------3----|
A|------------------------3--|---------------------------|
E|---------------------------|---------------------------|


e|----------------------------|--10-----10-----11--10---------|
B|----------------3--4--7-----|--11--8--11--8--11------11-----|
G|----0-1------5--------------|--12------------------------7--|
D|--3------6-8-3--------10----|-------------------------------|
A|----------------------9-----|-------------------------------|
E|--4------8------------------|-------------------------------|


e|--6-----6--8--10------------|--10-----10--3--13--11--10--8--|
B|--------4-----13--11--10----|--11--8--10-----11-------------|
G|--8--5--0-----10------11----|--12----------------12--10--8--|
D|-----------7--10------------|--0-------------13-------------|
A|----------------------------|-------------------------------|
E|----------------------10----|-------------------------------|


e|--1-----5--8--11--10--8--6--|--8-----8-----10--8--6--8--|
B|-----4--------7-------------|--8-----------8------7-----|
G|--0---------------10--8--7--|-----8-----8--7------5-----|
D|--------7-------------------|---------------------------|
A|----------------------------|--0------------------------|
E|--------------6-------------|---------------------------|


e|--10---------------------|--8-----8-----10--8--6--5--|
B|--10----8----------------|--8-----8-----8------7-----|
G|-------------11--8--7----|-----8-----8--7------5-----|
D|--8-----------------8----|--7--------7--0------0-----|
A|--------------------9----|---------------------------|
E|-------------------------|---------------------------|


e|--3---------------5----2----|--6-----6-----10--8--6--5--|
B|--3-----------3h4-4----3----|--4-----------8------7-----|
G|--0-------0h3-----5---------|-----5-----5--8------5-----|
D|--0---0h1-------------------|---------------------------|
A|--1-1-------------0---------|--------------0------------|
E|----------------------------|---------------------------|


e|--3---------------------|--3-------------3--6--10--|--15----------------||
B|--6-----------4----3----|-------------3-----3------|--11----------------||
G|-----8--7--5--0----5----|--3-------3--0--3---------|--12----------------||
D|-------------------4----|----------0---------------|--12----------------||
A|--------0---------------|-------1------------------|--------------------||
E|--3---------------------|--3-----------------------|--------------------||


******************************************************************************
******************************************************************************

Date: Tue, 14 May 2002 17:12:54 -0400
From: Zipidy Doodah 
Subject: Theme from Schindler's List by John Williams - simple version

[amended by weed@wussu.com - May 02]

Theme from Schindler's List by John Williams

 1                                      C1............
e|--------------|--------------|--------------|--------------|
B|--3-----3-----|--4--3--------|-----------1--|--3-----3-----|
G|-----0-----0--|--------3-----|--3-----3-----|-------(2)----|
D|--------------|-----------0--|--------------|--------0-----|
A|--------------|--------------|-----3--------|--1-----------|
E|--------------|--------------|--------1-----|--------------|


 5                 CI..........      cI.......
e|--------------|--1-----------|--------------|--------------|
B|--3-----3-----|-----4--3--1--|-----------1--|--4--3--1-----|
G|-----0-----0--|--------------|--------2-----|--3--------3--|
D|--------------|--------------|--3--1--------|--------0-----|
A|--------------|--1-----3-----|--0-----------|--------------|
E|--------------|--------------|--------1-----|--------------|


 9  cI..........
e|--------------|--------------|--------------|--------------|
B|--1-----1-----|--3--1-----1--|--3-----------|--------------|
G|--------------|-(2)----3-----|--2-----------|--------------|
D|-----1-----1--|--0-----4-----|--------------|--------0-----|
A|--3-----------|--------------|--------------|--------------|
E|--------------|--------------|--------------|--------------|


 13 CI...................
e|--------------|--------------|--------------|--------------|
B|--1-----1-----|--3--1--------|--------------|--------------|
G|--------------|--2-----3--2--|--0-----------|--2-----------|
D|-----1-----1--|--------0-----|--1-----------|--0-----------|
A|--------------|--------------|--------------|--------------|
E|--------------|--------------|--------------|--------------|

 17
e|--------------|--------------|--------------|-------------||
B|-----1-----1--|--3--1--------|--------------|-------------||
G|--3-----3-----|-(2)----3--2--|--0--------0--|--0----------||
D|--------------|--0-----4-----|--------0-----|--0----------||
A|--3-----------|--------------|-----3--------|-------------||
E|--------------|--------------|--3-----------|--3----------||


******************************************************************************
******************************************************************************

Theme from Schindler's List - John Towner Williams

Transcribed by Christian Ottem (christian_ottem@hotmail.com)

This is one of my favorites indeed, it's the theme from Spielberg's
masterpiece, "Shindler's List", which I've arranged for guitar.

Have fun!

NB: I've now started a mailing-list of classical tabs. If you sign up,
you'll get one free transcription every week, just gimme a mail for
signing up or requests!

http://www.geocities.com/classicalsweeps


 J=52
                     A5                          Dm
e|-------------------|-------|-5-----------------------|
B|-------------------|-------|-6-----------------------|
G|-------------------|-------|-7-------------7---------|
D|-2-----------------|-7-----|-------------------------|
A|-0-----------------|-------|-------------------------|
E|-------------------|-------|-------------------------|
6                   7       8

                                  A#                   F
e|5---------6----5--------------|-----------------3----5-------|----------|
B|--------------------6---------|-6----------6----5----6-------|----------|
G|-----7------------------------|-7-----0---------0----5-------|----------|
D|-------------------------7----|-8--------------------------3-|----------|
A|------------------------------|------------------------------|----------|
E|------------------------------|------------------------------|----------|
                              9                              10

  Dm
e|5------------5---------8-------6----5---------|---------------0---------|
B|6----------------------------------------8----|--1----------------------|
G|7-------7---------7----7----------------------|--3-------3--------------|
D|-----------------------5----------------------|-------------------------|
A|----------------------------------------------|--3----------------------|
E|----------------------------------------------|-------------------------|
                                              11

       F11                        Gm                     D5
e|3----6-------5-----3---------|--3------------3---------5-----3----------|
B|------------------------6----|--3----------------------3----------------|
G|-----5-----------------------|--3-------3---------3----2----------------|
D|-----3-------7---------------|------------------------------------------|
A|-----------------------------|------------------------------------------|
E|-----------------------------|--3------------3---------0----------------|
                             12

                FM7                                         Gm
e|1-----3----|--5----------------------------0-----1-----|--3-------------|
B|2----------|--6------------------3---------------------|--3-------------|
G|-----------|--9-----------------------2----------2-----|--3-------3-----|
D|-----------|---------------------3---------------------|----------------|
A|-----------|----------------0--------------------------|----------------|
E|-----------|-------------------------------------------|----------------|
           13                                          14

             E7sus4       A+                                     Gm7
e|3----------5-----------------------|----------0-------------|--1--------|
B|-----------5-------8----6-----5----|--3-------3-------2-----|--3--------|
G|3-----3----7------------6----------|--3-------2-------------|--3--------|
D|-----------------------------------|------------------------|-----------|
A|-----------7------------0----------|--1-------0-------------|-----------|
E|-----------------------------------|------------------------|--3--------|
                                   15                       16


e|-----1---------5-------3----1-----0----|--1----------0-------5-----|----|
B|-----3---------5------------2----------|--3----------3-------------|----|
G|0----3----0----7-----------------------|---------------------6-----|----|
D|---------------------------------------|--0------------------------|----|
A|---------------0-----------------------|---------------------------|----|
E|-----3---------------------------------|---------------------------|----|
                                       17                          18

                                                A#5
e|17----------17--------18---17--------------|--------------------15------|
B|-------15--------15--------------18--------|--18-----------18-----------|
G|-------------------------------------------|--15------------------------|
D|15--------------------20---19---------19---|----------17----------------|
A|-------------------------------------------|--------------------15------|
E|-------------------------------------------|----------------------------|
                                           19

                   D5/D
e|17------------|--17-----------17----------------18---17---15---|--------|
B|--------------|--15------15--------15---15---------------------|--------|
G|--------------|------------------------------------------------|--------|
D|19------------|--0---------------------------------------------|--------|
A|15------15----|------------------------------------------------|--------|
E|--------------|---------------------------------18-------------|--------|
              20                                               21


e|-------------12---15---18------17---15---13---|--15-----------15--------|
B|13--------------------------------------------|-------------------------|
G|15------15-------------17---------------------|--15------15-------------|
D|-----------------------15---------------------|--17---------------------|
A|15--------------------------------------------|-------------------------|
E|----------------------------------------------|--0----------------------|
                                              22

                                      *
e|15---17------15---13----15---|--17---------|--3------------|
B|15----------------14---------|--15---------|--3------------|
G|-----17----------------------|--14---------|--3----3-------|
D|17---19----------------------|-------------|-------5-------|
A|-----0-----------------------|-------0-----|---------------|
E|0----------------------------|-------------|--3------------|

                                                                .-.
             E7sus4       A+                                     *
e|3----------5-----------------------|----------0-------------|--5-|
B|-----------5-------8----6-----5----|--3-------3-------2-----|--6-|
G|3-----3----7------------6----------|--3-------2-------------|--7-|  hold notes
D|------5----------------------------|------------------------|--7-|
A|-----------7------------0----------|--1-------0-------------|--5-|
E|3----------------------------------|------------------------|--5-|



************************************

| (n)  Ghost note
| h    Hammer-on

************************************
Suggest correction
comments
print report bad tab
guest
You may want to rate the tab now too:
select rating
Wanna post a correction for this tab? Suggest correction