Oops, an error
Loading. Please wait.

Star Wars - The Throne Room Tab

24,503 views 51 this week
1 commentread comment
1 2 3 4 5
x 14
add to favorites
launch autoscroll
font size
0
reset
how to read this tab
guitar tuner
Autoscroll
slow
fast
+/-
esc
set tempo
stop
Help us to improve Ultimate-Guitar.com Take our survey!
×
Difficulty
novice
Star Wars episode IV
John Williams & London Symphonic Orchestra
Throne Room & Finale
[by Ronaldingo]


[Intro]
[----------------------------------------------------------------------------------------------] 
[----------------------------------------------------------------------------------------------]
[----------------------------------------------------------------------------------------------]
[----------------------------------------------------------------------------------------------] 
[-----------------------------------------7---7-7-7---7-7-7---7---7---7-7-7-7------------------]
[-8---8-8-8---8-8-8---8---8---8-8-8-8----------------------------------------------------------]

[----------------------------------------------------------------------------------------------] 
[----------------------------------------------------------------------------------------------]
[----------------------------------------------------------------------------------------------]
[---------------------------------------------------8------8-8-8-9------9-9-9-10---10-10-10-9--] 
[-10---10-10-10---10-10-10---10-10---10-10-10-10-----------------------------------------------]
[----------------------------------------------------------------------------------------------]


[Main Theme:]
[------------------------------------------------------------------------------------------] 
[------------------------------------------------------------------------------------------]
[------------------------------------------------------------------------------------------]
[-------------------8-----------------------------10-8-------------------------------------]
[-------8---10---11---11---8---8----10-11-10-11-8------------------------------------------]
[-8-8------------------------8-------------------------------------------------------------]

[------------------------------------------------------------------------------------------] 
[------------------------------------------------------------------------------------------]
[-----------------------------10-----------------------------------------------------------]
[---------------------10------------------------10-----------------------------------------] 
[-------8---10-11---8------11------8----11-10-8-------11-10----------8---------------------]
[-8-8-------------------------------------------------------8----8-8-----------------------]
Suggest correction
comments
print report bad tab
1 comment total.
0 reply
jnhsimon94 10 Jul 08, 2016 02:18 PM

Dope. Thank you

guest
You may want to rate the tab now too:
select rating
Wanna post a correction for this tab? Suggest correction