Oops, an error
Loading. Please wait.

Star Wars Darth Vader Theme Tab

271,284 views 573 this week
24 commentsread comments
1 2 3 4 5
x 167
add to favorites
launch autoscroll
font size
0
reset
how to read this tab
guitar tuner
×
Best way to learn
"Star Wars Darth Vader Theme"
Autoscroll
slow
fast
+/-
esc
set tempo
stop
Tuning
E A D G B E
e|-------------------|--------------------------|-------------------|------|
B|-------------------|--------------------------|-------------------|------|
G|-------------------|--------------------------|-2-----3-2-1-0---0-|------|
D|-------------------|-2-2-2-3------------------|---0-0---------4---|------|
A|-0-0-0---3-0---3-0-|----------3-----3-0-------|-------------------|------|
E|-------1-----1-----|------------4-1-----------|-------------------|------|

e|---------------|------------------||-------------------------------------|
B|---------------|------------------||-------------------------------------|
G|---------------|------------------||-------------------------------------|
D|-0-5-4-3-2-1-2-|------------------||-------------------------------------|
A|---------------|---0---3-0---3-0--||-------------------------------------|
E|---------------|-1---1-----1------||-------------------------------------|
Suggest correction
comments
print report bad tab
24 comments total. Showing first comments.
-2 reply
Nirvana_dude88 10 Mar 17, 2006 11:43 PM

cool

-2 reply
Bobbological 10 May 29, 2006 09:41 AM

im doin mine in key of E, but it still doesnt seem like that

-1 reply
hairyboy 10 Jun 26, 2006 09:12 AM

really cool!!! great job

guest
You may want to rate the tab now too:
select rating
Wanna post a correction for this tab? Suggest correction