Oops, an error
Loading. Please wait.

Star Wars Main Theme Tab

196,698 views 531 this week
11 commentsread comments
1 2 3 4 5
x 257
add to favorites
launch autoscroll
font size
0
reset
how to read this tab
guitar tuner
Autoscroll
slow
fast
+/-
esc
set tempo
stop
Help us to improve Ultimate-Guitar.com Take our survey!
×
Author
Difficulty
Capo
novice
3rd fret
A nice and easy version of this recognisable tune for the guitar.

John Williams
Star Wars Main Theme
Star Wars Soundtrack

Capo 3


[Intro]

e|---------------------3------------3-------------|
B|-----------3---1-0------3---1-0------3---1-0-1--|
G|-------0-----------2------------2--------------2|   x2
D|-0-0-0------------------------------------------|
A|------------------------------------------------|
E|------------------------------------------------|


[2ND PART]

e|------------------------------------------------|
B|------------1-0---------0--------------------1-0|
G|----------------2-0-0h2---2---------------------|
D|-0-0-0-2--2-----------------2-4---0-0-0-2--2----|
A|------------------------------------------------|
E|------------------------------------------------|

e|--------------------------------------------|
B|-----3------------------1-0---------0-------|
G|-2-0---2-2------------------2-0-0h2---2-----|
D|-------------0-0-0-2--2-----------------2-4-|
A|--------------------------------------------|
E|--------------------------------------------|


[END of 2ND PART]

e|--------3-1-------------------------------------|
B|-3-3-3------4-3-1-------3-------------------1---|
G|------------------3-2-0-----------------------2-|
D|----------------------------0-0-0-0--0-2--2-----|
A|------------------------------------------------|
E|------------------------------------------------|


[Outro]

e|----------------3------------3-------------|
B|------3---1-0------3---1-0------3---1-0-1--|
G|--0-----------2------------2--------------2|   x2
D|-------------------------------------------|
A|-------------------------------------------|
E|-------------------------------------------|


************************************

| h  Hammer-on

************************************
Suggest correction
comments
print report bad tab
11 comments total. Showing first comments. show 1 bad comment
+3 reply
firebomb 10 Mar 17, 2008 12:04 AM

its close but parts of it sound funny

+6 reply
FOB&AAR ROCK 10 Dec 22, 2008 01:50 PM

BEST EVER!!!!!!!!!

guest
You may want to rate the tab now too:
select rating
Wanna post a correction for this tab? Suggest correction