Oops, an error
Loading. Please wait.

The Chairmans Waltz Tab

1,939 views 1 this week
no commentswrite comment
1 2 3 4 5
please rate
add to favorites
launch autoscroll
font size
0
reset
how to read this tab
guitar tuner
Autoscroll
slow
fast
+/-
esc
set tempo
stop
Help us to improve Ultimate-Guitar.com Take our survey!
×
Author
Difficulty
intermediate
-------------------------------------------------------------------------------
                             SONG NAME - Band Name
-------------------------------------------------------------------------------
Tabbed by:Mark Azzaretto
Email:I heard this song for the first time on So You Think You Can Dance. I
absolutely loved it. The parts are transposed to guitar from violin. Hopefully
you like it. Plus I'm pretty sure it's 100% accurate. Any suggestions please
email me!!! markazzaretto@hotmail.com

Tuning:Standard

Measure 1 starts when the violin starts playing.

e|---------------------------------------------------------|
B|----------------/15~ 13~ -------------12~ ---------------|
G|--/9~ /11~ 12--------------12--11--9-------12--11--9--8~ |
D|---------------------------------------------------------|
A|---------------------------------------------------------|
E|---------------------------------------------------------|

e|---------------------------------------------------------------|
B|---------------/15~ 13~ --13--12--------------------12~ -------|
G|--/9~ /11~ 12---------------------9--11--12--11--9-------8~ 9~ |
D|---------------------------------------------------------------|
A|---------------------------------------------------------------|
E|---------------------------------------------------------------|


These two notes are played with a volume pedal.
e|--------------|
B|--------------|
G|--------------|
D|----9~ ---9~ -|
A|--------------|
E|--------------|

e|-------------------------------------------------------------------------|
B|------------------12~ -----------------------------------12~ ------/16~ -|
G|--8--11--9--8--9-------8--9--/12~ -------8--11--9--8--9------8--9--------|
D|-----------------------------------8--9~ --------------------------------|
A|-------------------------------------------------------------------------|
E|-------------------------------------------------------------------------|

e|-------------------------------------------------------------------|
B|--------------------------/20~ 19~ 17--16~ -12h13--16--13--13--12--|
G|-11--12~ -8--11--9--8--9-------------------------------------------|
D|-------------------------------------------------------------------|
A|-------------------------------------------------------------------|
E|-------------------------------------------------------------------|

e|----------------------------------------------------------|
B|--------------------------------12~ ----------------11h12-|
G|-16p14p12\11~ -----/14--12--11------9~ -----8h9-----------|
D|--------------8h9-----------------------8h9-----8h9-------|
A|----------------------------------------------------------|
E|----------------------------------------------------------|

e|-12-15-14-12-14-/19~ 11-12-/15~ ----12-15-14-12-14-/19~ 11-12-/23~ 14-15-|
B|--------------------------------11-12------------------------------------|
G|-------------------------------------------------------------------------|
D|-------------------------------------------------------------------------|
A|-------------------------------------------------------------------------|
E|-------------------------------------------------------------------------|


On this part on the 24th fret you have to bend a whole + 1half step to get the note high enough.
e|-12-15-14-12-14-24bb-24b-24-23-------23-22-22-22-20-|
B|-------------------------------19h20----------------|
G|----------------------------------------------------|
D|----------------------------------------------------|
A|----------------------------------------------------|
E|----------------------------------------------------|


e|-14-11----------12-14-15-20-19-15-14-12----------------------------|
B|-------12-13-15-------------------------15-13-12----15----13----12-|
G|-------------------------------------------------16----14----12----|
D|-------------------------------------------------------------------|
A|-------------------------------------------------------------------|
E|-------------------------------------------------------------------|



e|----15----14----12-20-19-19p17p15\14-------15-14-12-19------|
B|-16----15----13----------------------11-12-------------17~ -|
G|------------------------------------------------------------|
D|------------------------------------------------------------|
A|------------------------------------------------------------|
E|------------------------------------------------------------|



e|--------------------------------24~ -|
B|----12-10--------12~ ----17----------|
G|----------12-11~ ----9~ -------------|
D|-9-----------------------------------|
A|-------------------------------------|
E|-------------------------------------|








| /  slide up
| \  slide down
| h  hammer-on
| p  pull-off
| ~  vibrato
| +  harmonic
| x  Mute note
===============================================================================
Suggest correction
What's this?
You can suggest a correction to this tab. Community and Mods will review your correction and vote to approve or reject it.
comments
We did not receive enough feedback on this tab! Please rate:
print report bad tab
1 2 3 4 5
guest
You may want to rate the tab now too:
select rating
Please do not post tabs as comments. Select "correction" instead!