Oops, an error
Loading. Please wait.

The Sicilian Clan Bass Tab

25 views 9 this week
no commentswrite comment
1 2 3 4 5
2 more votes to show rating
add to favorites
launch autoscroll
font size
0
reset
guitar tuner
Autoscroll
slow
fast
+/-
esc
set tempo
stop
Help us to improve Ultimate-Guitar.com Take our survey!
×
Author
THE SICILIAN CLAN – JOHN ZORN / ENNIO MORRICONE

(Instrumental)


0:00

G ||---------------------------------|----------------------------------|
D ||7----7---------7----7------------|7----7--7------7----7-------------|
A ||--------7--------------7--7------|-----------------------7--7-------|
E ||---------------------------------|----------------------------------|

G ||--------3------------------------|----------------------------------|
D ||5----5-----5---------------------|----------------------------------|
A ||---------------5------5----5-----|5----5---5---5-----7-----7---7----|
E ||---------------------------------|----------------------------------|

G ||---------------------------------|----------------------------------|
D ||---------------------------------|----------------------------------|
A ||---------------------------------|2----2--1----1---0------0--0--0---|
E ||5----5--5--5-----5--5----2--2----|----------------------------------|

G ||---------------------------------|----------------------------------|
D ||---------------------------------|7----7--7------7----7--7----------|
A ||0----0--0--0-----7----7--7--7----|----------------------------------|
E ||---------------------------------|----------------------------------|


0:28


G ||---------------------------------|--------3-------------------------|
D ||7----7--7--7---7----7------------|5----5-----5----------------------|
A ||-----------------------7--7------|--------------5------5----5-------|
E ||---------------------------------|----------------------------------|

G ||---------------------------------|----------------------------------|
D ||---------------------------------|----------------------------------|
A ||5----5--5--5---7----7--7--7------|----------------------------------|
E ||---------------------------------|5----5--5--5-----5--5----2--2-----|

G ||---------------------------------|----------------------------------|
D ||---------------------------------|----------------------------------|
A ||2----2--1----1---0------0--0--0--|0----0--0--0-----7----7--7--7-----|
E ||---------------------------------|----------------------------------|

G ||---------------------------------|
D ||7----7--7------7----7--7--7------|
A ||---------------------------------|
E ||---------------------------------|

0:53


G ||---------------------------------|----------------------------------|
D ||7----7---------7----7------------|6----6---------6----6-------------|
A ||--------7--------------7---------|--------7--------------7----------|
E ||---------------------------------|----------------------------------|

G ||---------------------------------|----------------------------------|
D ||5----5--5------------------------|8----8---------8----8--8----------|
A ||---------------7----7--7---------|--------7-------------------------|
E ||---------------------------------|----------------------------------|

G ||---------------------------------|----------------------------------|
D ||7----7---------7----7--7---------|----------------------------------|
A ||--------5------------------------|5----5---------5----5-------------|
E ||---------------------------------|--------5--------------5----------|

G ||---------------------------------|----------------------------------|
D ||---------------------------------|----------------------------------|
A ||5----5---------5----5------------|7----7---------7----7-------------|
E ||--------7--------------7---------|--------7--------------0----------|

G ||---------------------------------|----------------------------------|
D ||---------------------------------|----------------------------------|
A ||3----3---------3----3------------|--------3-------------------------|
E ||--------5--------------5---------|2----2---------2----2--2----------|

G ||---------------------------------|----------------------------------|
D ||---------------------------2--2--|--------2--2----------------------|
A ||2----2--2---2---1------1---------|0----0---------0----0--7----7-----|
E ||---------------------------------|----------------------------------|

1:34


G ||---------------------------------|----------------------------------|
D ||7----7---------7----7------------|6----6---------6----6-------------|
A ||--------7--------------7---------|--------7--------------7----------|
E ||---------------------------------|----------------------------------|

G ||---------------------------------|----------------------------------|
D ||5----5--5------------------------|8----8---------8----8--8---8------|
A ||---------------7----7--7---------|--------7-------------------------|
E ||---------------------------------|----------------------------------|

G ||---------------------------------|----------------------------------|
D ||7----7---------7----7--7---------|----------------------------------|
A ||--------5------------------------|5----5---------5----5-------------|
E ||---------------------------------|--------5--------------5----------|

G ||---------------------------------|----------------------------------|
D ||---------------------------------|----------------------------------|
A ||5----5---------5----5---------5-6|7----7------------------7---7-----|
E ||--------7--------------7---------|--------7----7--0----0------------|

G ||---------------------------------|----------------------------------|
D ||--------7--------------7---------|4----4------------------4---------|
A ||---------------------------------|--------3----3--------------------|
E ||8----8---------8----8------------|----------------2----2------------|

G ||---------------------------------|----------------------------------|
D ||-----------------------2---2-----|----------------------------------|
A ||2----2--2------1----1------------|----------------------------------|
E ||---------------------------------|5----5--5----5--5---0---0---------|

2:16


G ||---------------------------------|----------------------------------|
D ||7----7---------7----7------------|6----6---------6----6-------------|
A ||--------7--------------7---------|--------7--------------7----------|
E ||---------------------------------|----------------------------------|

G ||---------------------------------|----------------------------------|
D ||5----5--5------------------------|8----8---------8----8--8---8------|
A ||---------------7----7--7---------|--------7-------------------------|
E ||---------------------------------|----------------------------------|



G ||---------------------------------|----------------------------------|
D ||7----7---------7----7------------|----------------------------------|
A ||--------5--------------5---------|5----5---------5----5-------------|
E ||---------------------------------|--------5--------------5----------|

G ||---------------------------------|----------------------------------|
D ||---------------------------------|----------------------------------|
A ||5----5---------5----5------------|7----7---------7----7------5------|
E ||--------7--------------7---------|--------7--------------7----------|


G ||---------------------------------|----------------------------------|
D ||------------------------------2-3|4----4------------------4---4-----|
A ||3----3---------3----3------------|--------3----3--------------------|
E ||--------5--------------5---------|----------------2-----------------|

G ||---------------------------------|----------------------------------|
D ||---------------------------------|----------------------------------|
A ||-----------------------7---------|-----------------------7---7------|
E ||7----7--7------6----6------------|5----5--5------5----5-------------|

2:58


G ||---------------------------------|--------3-------------------------|
D ||7----7--7------7----7------------|5----5-----5----------------------|
A ||-----------------------7---7-----|---------------5-----5--5---5-----|
E ||---------------------------------|----------------------------------|

G ||---------------------------------|----------------------------------|
D ||---------------------------------|----------------------------------|
A ||5----5--5---5--7----7--7---7-----|----------------------------------|
E ||---------------------------------|5----5--5--5---5----5--2---2------|

G ||---------------------------------|----------------------------------|
D ||---------------------------------|----------------------------------|
A ||2----2--1---1--0----0--0---0-----|0----0--0--0---7----7--7---7------|
E ||---------------------------------|----------------------------------|

G ||---------------------------------|----------------------------------||
D ||7----7--7---7--7----7--7---7-----|7----7--7--7---7----7--7---7----7-||
A ||---------------------------------|----------------------------------||
E ||---------------------------------|----------------------------------||
Suggest correction
Give kudos to tab author, rate the tab!
1 2 3 4 5
comments
print report bad tab
guest
You may want to rate the tab now too:
select rating
Wanna post a correction for this tab? Suggest correction