Oops, an error
Loading. Please wait.

Chica Zombie A Go-Go Chords

18 views 1 this week
no commentswrite comment
1 2 3 4 5
3 more votes to show rating
add to favorites
launch autoscroll
font size
0
reset
transpose
0
reset
display chords
guitar tuner
Autoscroll
slow
fast
+/-
esc
set tempo
stop
Help us to improve Ultimate-Guitar.com Take our survey!
×
pm = palm mute

intro

C(5) A(5) E(5) x 2

C(5)                A(5)     E(5)
   Eras mi princesa,         todo lo hacia por vos
C(5)                  A(5)      E(5)
   Eramos inseparables,     como Jenny y forest gump
D(5)              A(5)    E(5)
   Un dia te fuiste,        detrás de los zombies
D(5)                  A(5)          (5)
    Te comieron el cerebro y ohohuohohoh

B(5)      F#(5) D(5)
   No te culpo     en este mundo
B(5)  F#(5)        D(5)
   hay personas   como vos
B(5)  F#(5)      D(5)
  que vinieron a aprovecharse
A(5)     B(5)    C(5)
  de los tontos como yo (bis)
A(5)     B(5)    C(5)
  de los tontos como yo


E|-----------x----------------
B|-----------x----------------
G|-----------4----------------
D|-----------4----------------
A|-----------2----------------
E|--3--1--0--x----------------


C(5) pm                 A(5) pm
   No  tenia cabida en  tu nueva vida,
    E(5)
pero me aguantaba todas tus llamadas

C(5)                          A(5)
     En la madrugada cuando tus amigos,
                      D(5)
    ya no eran amigos solo te dejaban
C(5)             A(5)     E(5)
                                 Eras mi princesa eramos inseparables
C(5)             A(5)      E(5)
                                  Chica zombie a go-go
D(5)                 A(5)      E(5)
   Luego te quedaste,       detrás de los zombiez
D(5)                 A(5)             B(5)
   Te comieron el cerebro y ohohuohohoh


B(5)      F#(5) D(5)
   No te culpo     en este mundo
B(5)  F#(5)        D(5)
   hay personas   como vos
B(5)  F#(5)      D(5)
  que vinieron a aprovecharse
A(5)     B(5)    C(5)
  de los tontos como yo (bis)
A(5)     B(5)    C(5)
  de los tontos como yo x 4


E|-----------x----------------
B|-----------x----------------
G|-----------4----------------
D|-----------4----------------
A|-----------2----------------
E|--3--1--0--x----------------

ACORDES
   C(5)  A(5)  E(5)  D(5)  B(5)  F#(5)
e|--X--|--X--|--X--|--X--|--X--|--X---|
B|--X--|--X--|--X--|--X--|--X--|--X---|
G|--5--|--X--|--9--|--7--|--X--|--11--|
D|--5--|--7--|--9--|--7--|--9--|--11--|
A|--3--|--7--|--7--|--5--|--9--|--9---|
E|--X--|--5--|--X--|--X--|--7--|--X---|


una cancion de una muy buena banda
que me gusta mucho. apoyemos lo local
Suggest correction
Give kudos to tab author, rate the tab!
1 2 3 4 5
comments
print report bad tab
guest
You may want to rate the tab now too:
select rating
Wanna post a correction for this tab? Suggest correction