Oops, an error
Loading. Please wait.

Creer Tab

10 views 1 this week
no commentswrite comment
1 2 3 4 5
3 more votes to show rating
add to favorites
launch autoscroll
font size
0
reset
how to read this tab
guitar tuner
Autoscroll
slow
fast
+/-
esc
set tempo
stop
Help us to improve Ultimate-Guitar.com Take our survey!
×
- LA CANCION NO ES DIFICIL PERO HAY QUE TOMARLA CON CALMA
- EN ESTA TRASNCRIPCION APARECEN LAS DOS GUITARRAS EN LOS RIFFS
  PERO A LA HORA DE LOS ACORDES EN LOS VERSOS HACEN CASI LO MISMO
- DUDAS COMENTARIOS O CORRECCIONES AL CORREO ROCKANDRES182@

INTRO I:

Guitarra 1:
E|---------------------------------------------------------|
B|---------------------------------------------------------|
G|---------------------------------------------------------|
D|-000-7-5-4p5h4-000-7-5-4p5h4--555-7-5-4p5h4--777-5-4p5h4-|X6
A|---------------------------------------------------------|
E|---------------------------------------------------------|
   |PM|         |PM|           |PM|           |PM|
Guitarra 2:
E|---------------------------------------------------------|
B|---------------------------------------------------------|
G|-777-----------------------------------------------------|
D|-777-7-5-4p5h4-000-7-5-4p5h4--555-7-5-4p5h4--777-5-4p5h4-|
A|-555-----------------------------------------------------|
E|---------------------------------------------------------|
                |PM|           |PM|           |PM|
E|---------------------------------------------------------|
B|---------------------------------------------------------|
G|-7~~--------------------------7777777777777--------------|
D|-7~~--------------------------7777777777777--777-555-444-|
A|-5~~--------------------------5555555555555--------------|
E|---------------------------------------------------------|
                                |-------------PM---------|
E|---------------------------------------------------------|
B|---------------------------------------------------------|
G|-7~~7777777777-------------------------------------------|
D|-7~~7777777777-777-555-44444---5~~555555555--7~~77777777-| X2
A|-5~~5555555555-----------------5~~555555555--7~~77777777-|
E|-------------------------------3~~333333333--5~~55555555-|
      |-----------PM---------|      |--PM---|     |--PM---|
E|---------------------------------------------------------|
B|---------------------------------------------------------|
G|-7~~-----------9~~-------------12--10-10/14~~------------|
D|-X-------------X---------------X---X--X-/X---------------|
A|-5~~-----------7~~-------------10--8--8-/12~~------------|
E|---------------------------------------------------------|

E|---------------------------------------------------------|
B|---------------------------------------------------------|
G|--9~~----------7~~-------------5~~-----------4~~---4-3-1-|
D|--X------------X---------------X-------------X-----------|
A|--7~~----------5~~-------------3~~-----------2~~---------|
E|---------------------------------------------------------|

Guitarras 1 y 2:
E|------------------------------|
B|-----7-5-4p5h4------7-5-4p5h4-|
G|-444------------444-----------|
D|------------------------------|
A|------------------------------|
E|------------------------------|
   |PM|           |PM|

INTRO 2:
E|------------------------------------------------------------666666-|
B|-333333333-222-33-555-777---------------------------777-999--------|
G|--------------------------77-77-77-77------------------------------|
D|--------------------------77-77-77-77--55-555-77-777---------------|
A|--------------------------55-55-55-55--55-555-77-777---------------|
E|---------------------------------------33-333-55-555---------------|
   (D5    G5 A5) X4


D5
Salgo a la calle y veo
G5         A5
toda esta sitacion
D5
tanta pobreza Y tanta injusticia
G5           A5
y no encuetro la razon
D5          G5
Pero a tu lado
   A5     G5         D5
yo puedo creer en el amor
G5
y sentir
RIFF 1                  G5
que contigo todo estara mejor
D5
y saber
   G5       A5         G5
que nada me alejara de voz

D5
Veo los diarios
G5
veo noticias
A5
y en las calles tanta gente morir
D5
y aunque te amo
G5
se lo que digo
A5~~
porque tu voz me hace sonreir
D5         G5
y saber que lo que quiero
RIFF 2
es estar junto a ti

E|--------------------------------------|
B|-3-3-33---3-3-33--3-3-33-3-5-3-2-0-3--|
G|--------------------------------------|
D|--------------------------------------| X2
A|--------------------------------------|
E|--------------------------------------|
   D5               G5       A5

D5                             G5
Y yo que siempre estoy con vos
        A5              D5
escuchando rock and role
D|777-55-44     G5
te quiero dedicar
A5
hoy esta cancion

E|-------------------------------------------------------------|
B|-33-355-577-7-10-8-7-5v--3-2-3-5---33-355-577-7-10-8-7-8-12v-|
G|-------------------------------------------------------------|
D|-------------------------------------------------------------|
A|-------------------------------------------------------------|
E|-------------------------------------------------------------|

E|-------------------------------------------------------|
B|-78-7-10-8--7-5v---78-7-10-8-10-12v---78-7-10-8--7-5v--|
G|-------------------------------------------------------|
D|-------------------------------------------------------|
A|-------------------------------------------------------|
E|-------------------------------------------------------|

D5
Sigo creyendo
G5
que hoy en el mundo
A5
puede haber solucion
D5
mejor me siento
G5
frente aquel dia
A5               D5-C5-B5-A5~~
fre a tu corazon

(solo bajo y bateria)
tanto vacio y tanta tristeza
que habia en mi iterior
tanta violencia y si indiferencia
que hay en el mundo hoy

D5         G5
Pero a tu lado
D5 G5    A5  D5
yo puedo creer
G5    A5    G5 A5
en el amor

E|----------|----------------------------|-------------------|
B|-333333-3-|-3-3-33--3-3-33-3-5-3-2-0-3-|-5~~-7~~--10-8-7---|
G|----------|----------------------------|-----------------7-|
D|----------|-----------------------X2---|-------------------|
A|----------|----------------------------|-------------------|
E|----------|----------------------------|-------------------|

ACORDES:
E|-----X-----X-----X-----X-----X------| PM = Palm mute
B|-----X-----X-----X-----X-----5------| ~~ = Let ring
G|-----X-----X-----7-----4-----5------|  p = Pull off
D|-----5-----7-----7-----4-----5------|  h = Hammer on
A|-----5-----7-----5-----2-----3------|  v = vibrato
E|-----3-----5-----X-----X-----X------|
       G5    A5    D5    B5    C5

RIFF 1:
E|--------------------|
B|-3-3-33-33-5-3-2-3--|
G|--------------------|
D|--------------------|
A|--------------------|
E|--------------------|

RIFF 2:
E|--------------------------|
B|--------------------------|
G|----4-6----7--------------|
D|--7-4-6----7-7-5555555-7--|
A|--7-2-4----5-7-5555555-7--|
E|--5----------5-3333333-5--|
Suggest correction
Give kudos to tab author, rate the tab!
1 2 3 4 5
comments
print report bad tab
guest
You may want to rate the tab now too:
select rating
Wanna post a correction for this tab? Suggest correction