Oops, an error
Loading. Please wait.

Sin Patria Chords

2 views 1 this week
no commentswrite comment
1 2 3 4 5
3 more votes to show rating
add to favorites
launch autoscroll
font size
0
reset
transpose
0
reset
simplify chords
display chords
guitar tuner
×
Best way to learn
"Sin Patria"
Autoscroll
slow
fast
+/-
esc
set tempo
stop
Bajo:
G|------------------------------------------|
D|------------------------------------------|
A|------99----4444-66-44------99----4--6--4-|
E|-7777----77------------7777----77---------|

Intro guitarra:
e|---------|-----------------------------|
B|---------|-----------------------------|
G|-6--8--6-|------1111----6666-88-66--X2-|
D|-6--8--6-|-9999-1111-99-6666-88-66-----|
A|-4--6--4-|-9999-99---99-4444-66-44-----|
E|---------|-7777------77----------------|

B5   F5 B5  C#5 D5 C#5
La patria me ha traicionado
B5   F5 B5  C#5 D5 C#5
Soberanía has fracasado
B5   F5 B5   C#5 D5 C#5
Fronteras del egoísmo
B5   F5 B5     C#5 D5 C#5
Que espantan mi patriotismo

B5 E5/F5        C#5   A5
De que me sirve reconocerlo
B5 E5/F5    C#5  D5
Y limitarme a estar atado
B5 E5/F5      C#5   A5
Solo rencores hay que saberlo
B5 E5/F5     C#5   D5
Nadie parece civilizado

E5 D5 C#5        B5
Me tiene sin cuidado
E5 D5 C#5       B5
Fantasma de la patria
E5 D5 C#5   B5
Estoy decepcionado
E5 D5 C#5 B5

B5      F5
Somos un país herido
E5     D5 E5 D5
La patria me tiene ya jodido
B5      F5
Derechos humanos en ausencia
E5     D5 E5 D5
La patria me tiene sin conciencia
B5     D5 E5 D5
Tengo cara de patriota
B5          F5
La patria me tiene corrompido
B5     D5 E5 D5
No quiero sufrir la consecuencia
B5         F5
De ser un idiota reducido


B5 E5/F5        C5   A5
Siempre tienes que defenderla
B5 E5/F5     C5  D5
Y ella nunca se lo merece
B5 E5/F5        C5   A5
Una patria imaginaria
B5 E5/F5     C5  D5
Donde lo bueno desaparece


Final:
e|----------|-------------|
B|----------|-------------|
G|-88-8-8-7-|-10-8-7-8-5--|
D|----------|-------------|
A|------x3--|-------------|
E|----------|-------------|

Acordes:
e|---X---X---X---X---X---X---|
B|---X---X---X---X---X---X---|
G|---X---11--6---7---X---9---|
D|---9---11--6---7---7---9---|
A|---9---9---4---5---7---7---|
E|---7---X---X---X---5---X---|
     B5  F5  C#5 D5  A5  E5

ESTA CANCION ES UN COVER DE IXRXA
ES FACIL SOLO EN NOTAR BIEN LOS CAMBIOS DE LOS ACOERDES
DUDAS, COMENTARIOS O MAS TABS A ROCKANDRES182@
Suggest correction
Give kudos to tab author, rate the tab!
1 2 3 4 5
comments
print report bad tab
guest
You may want to rate the tab now too:
select rating
Wanna post a correction for this tab? Suggest correction