Oops, an error
Loading. Please wait.

Bonanza Tab

47,135 views 72 this week
no commentswrite comment
1 2 3 4 5
x 5
add to favorites
launch autoscroll
font size
0
reset
how to read this tab
guitar tuner
Autoscroll
slow
fast
+/-
esc
set tempo
stop
Help us to improve Ultimate-Guitar.com Take our survey!
×
Author
This is the Mainriff of Bonanza by Johnny Cash. I think it must be correct tabed.

D-Tuning

[Intro]
e----------------------------------------------------|
H----------------------------------------------------|
G----------------------------------------------------|
D--------------------0-4---------------------------0-|
A-0-0-0-0-0-0-0-0-0------0-0-0--0-0-0-0--0-0-0-2-4---|
E----------------------------------------------------|

[Solo]
e----------------------------------------------------|
H----------------------------------------------------|
G----------------------------------------------------|
D--------------------0-4---------------------------0-|
A-0-0-0-0-0-0-0-0-0------0-0-0--0-0-0-0--0-0-0-2-4---|
E----------------------------------------------------|

e----------------------------------------------------|
H----------------------------------------------------|
G--------------------0-4---------------------------0-|
D-0-0-0-0-0-0-0-0-0------0-0-0--0-0-0-0--0-0-0-2-4---|
A----------------------------------------------------|
E----------------------------------------------------|
play this twice:
e------------------------------|
H------------------------------|
G---2--------------------------|
D-4---0-------0-------0-4-0-2--|
A----------2--------0----------|
E---------------3--------------|

e----------------------------------------------------|
H----------------------------------------------------|
G----------------------------------------------------|
D--------------------0-4---------------------------0-|
A-0-0-0-0-0-0-0-0-0------0-0-0--0-0-0-0--0-0-0-2-4---|
E----------------------------------------------------|

[Outro]
e----------------------------------------------------|
H----------------------------------------------------|
G----------------------------------------------------|
D--------------------0-4---------------------------0-|
A-0-0-0-0-0-0-0-0-0------0-0-0--0-0-0-0--0-0-0-2-4---|
E----------------------------------------------------|


The claim we hold is good as gold bonanza
Hand in hand we built this land the Ponderosa Ranch
Our birthright is this Cartwright bonanza
We here belong and standing strong wrong ain't got a chance

Day by day work or play ready side by side
Hello friend come MEN in the gate is open wide
Bound to be a figtin' free bonanza
Singing pines are boundary lines for the Ponderosa Ranch

Every tree and flower is part of our bonanza
The stars at night the morning light water in the branch
We ride along four men strong together
Every plain and ridge is our heritage the Ponderosa Ranch

Day by day work or play ready side by side
Hello friend come MEN in the gate is open wide
Bound to be a figtin' free bonanza
Singing pines are boundary lines for the Ponderosa Ranch
Suggest correction
comments
print report bad tab
guest
You may want to rate the tab now too:
select rating
Wanna post a correction for this tab? Suggest correction