Oops, an error
Loading. Please wait.

Cats In The Cradle Tab

version 1
version 1

Intro

Whole song

19,937 views 6 this week
6 commentsread comments
1 2 3 4 5
worth learning
x 7
add to favorites
launch autoscroll
font size
0
reset
how to read this tab
guitar tuner
Tab Pro tools
  • play this tab
  • loop segment
  • change instrument
  • show fretboard
  • metronome
×
Best way to learn
"Cats In The Cradle"
Autoscroll
slow
fast
+/-
esc
set tempo
stop
Contributor
hi sicne I know that problably not alot of u got the intro to this song^ I did the intro 
you guys to!!!:

e --------------------------------|
b --------------------------------|
G ---2----------------------------|
D -0-----4-0-0----2-0-------------|
A --------------3-----------------|
E --------------------------------|


And If you gonna do this 'fore the song you do it x2 if you wanna do it correct!

muth enjoy  /Nikls
comments
print report bad tab
6 comments total. Showing first comments.
+2 reply
LocknLoad50cal wrote on January 5 2007, 11:39 am

There's something missing.

I believe it goes:

e ----------------------------------|
b ----------------------------------|
G ---2------------------------------|
D -0-----4-0-0------2-0-------------|
A -------------0--3-----------------|
E ----------------------------------|

-2 reply
biguy1989 wrote on May 16 2007, 07:39 pm

non very accurate

0 reply
BoxerLadABC wrote on August 11 2009, 03:20 pm

LocknLoad50cal sounds right

I want to post or [tab]
guest
You may want to rate the tab now too:
select rating
Please do not post tabs as comments. Select "correction" instead!