Oops, an error
Loading. Please wait.

Cry Cry Cry solo tab

version 1
version 1

Solo

Whole song

Interactive

27,757 views 24 this week
no commentswrite comment
1 2 3 4 5
x 6
add to favorites
×
Save as Personal and add changes to this tab that will be seen only by you. Learn more ›
×
You can save this tab as Personal to edit and correct it or add notes. All changes will be seen only by you. Learn more »
launch autoscroll
font size
0
reset
how to read this tab
guitar tuner
backing track
0:00
0:00
edit
Autoscroll
slow
fast
+/-
esc
set tempo
stop
Song: Cry Cry Cry solo
Writer: Luther Perkins & Johnny Cash
Tabbed by Ben Bennett

Tune slightly sharp to match original recording.

This is the solo that Luther Perkins plays in the middle of the song.
The first half of this solo is palm muted, but the last half is picked open.

[Intro]                                                               (to verse)
e|------------|--------------|------------|-------------|-------------|----|
B|------------|--------------|------------|-------------|-------------|----|
G|------------|--------------|------------|-------------|-------------|----|
D|------------|--------------|-2----------|-------------|-------------|----|
A|------------|-0--0-0--0-4--|----4-------|-------------|-------------|----|
E|---0--2--4--|--------------|------------|-2-----4-----|-0-----4--2--|-0--|

(intro corrected, ignore solo for now as it's really wrong,
 especially after adjustment for capo)
[Solo]
e|-----------------------------------------------------|
B|-----------------------------------------------------|
G|-----------------------------------------------------|
D|-------------------------------------------1-1-------|
A|-----0-1-----0-1-----0-1------0-1---2-2-2-----2------|
E|-1-3-----1-3-----1-3------1-3-------------------3-0--|
   PM------------------------------------------------|

            
            
Suggest correction
Creating personal tab
Creating personal tab
You can edit any tab online and save it as your Personal.

You can edit, replace or remove any tab part or add personal notes – all changes will be seen only by you.

Personal tabs can be accessed anytime from any device, even offline.
Learn more »
comments
print report bad tab
guest
Wanna post a correction for this tab? Suggest correction