Oops, an error
Loading. Please wait.
We have an official Cry Cry Cry tab made by UG professional guitarists. Check out the tab »
×
37,322 views 12 this week
1 commentread comment
1 2 3 4 5
x 7
add to favorites
×
Save as Personal and add changes to this tab that will be seen only by you. Learn more ›
×
You can save this tab as Personal to edit and correct it or add notes. All changes will be seen only by you. Learn more »
launch autoscroll
font size
0
reset
how to read this tab
guitar tuner
backing track
0:00
0:00
edit
Autoscroll
slow
fast
+/-
esc
set tempo
stop
Author
Difficulty
----------------------------------------------------------------------------
                             Cry Cry Cry - Johnny Cash
----------------------------------------------------------------------------
Tabbed by: blueguitar77
Email: fusion_ntjsma@yahoo.com

First tab, don't know how good it will be.  It's pretty basic.  Everything is palm muted 
for the intro and the end of the solo in the middle of the song.  There are some bends 
the end of the solo but you can just listen for those to figure them out.  Enjoy.

Tuning:
Intro
e|----------------------------------------------|
B|----------------------------------------------|
G|----------------------------------------------|
D|--------------------0-3-0---------------------|
A|-------0--1-1-1-1---------------0---------0---|
E|-1--3------------------------3----3--1------3-|

Verse 1
e|------------------------------------------------------------------------|
B|------------------------------------------------------------------------|
G|------------------------------------------------------------------------|
D|------------------------------------------------------------------------|
A|----3-----3-----3-----3-----3-----3-----3-----3-----3-----3-----5--3--3-|
E|-1-----1-----1-----1-----1-----1-----1-----1-----1-----1-----3----------|
                          Everybody knows....
e|------------------------------------------------------------------|
B|------------------------------------------------------------------|
G|------------------------------------------------------------------|
D|----------------------------3-----3-----5-------------------------|
A|----3-----3-----3-----3--1-----1-----3--------3-----3-----3-----3-|
E|-1-----1-----1-----1-----------------------1-----1-----1-----1----|

e|------------------------------------------------------------|
B|------------------------------------------------------------|
G|------------------------------------------------------------|
D|------------------------------------------------------------|
A|----3-----3-----3-----3-----5--3--3-----3-----3-----3-----3-|
E|-1-----1-----1-----1-----3-----------1-----1-----1-----1----|

e|------------------------------|
B|------------------------------|
G|------------------------------|
D|----3-----3-----5-------------|
A|-1-----1-----3--------3-----3-|
E|-------------------1-----1----|

Chorus
e|---------------------------------------------------------------------|
B|---------------------------------------------------------------------|
G|---------------------------------------------------------------------|
D|----------------------------3-----3----------------------------------|
A|----3-----3-----3-----3--1-----1--------3-----3-----3-----3-----3----|
E|-1-----1-----1-----1-----------------1-----1-----1-----1-----1-----1-|
   Cry, Cry, Cry...
Solo
e|-------------------------------------------------------------------|
B|-------------------------------------------------------------------|
G|-------------------------------------------------------------------|
D|---------------------------------------0-------0-------0-------0---|
A|-------0-------0-------0-------0-1-3-4---1-3-4---1-3-4---1-3-4-----|
E|-1-3-4---1-3-4---1-3-4---1-3-4-------------------------------------|

e|--------------------------------------------------|
B|--------------------------------------------------|
G|--------------------------------------------------|
D|--------------------------------------3-----------|
A|-------0-------0-------0-------0--3-4----4--3-----|
E|-1-3-4---1-3-4---1-3-4---1-3-4-----------------4--|
   Palm mute until.............Here. (the C note should be the first non muted note, 
the verse starts again you go back to muting.

Verse 2
e|------------------------------------------------------------------|
B|------------------------------------------------------------------|
G|------------------------------------------------------------------|
D|------------------------------------------------------------------|
A|----3-----3-----3-----3-----3-----3-----3-----3-----3-----5--3--3-|
E|-1-----1-----1-----1-----1-----1-----1-----1-----1-----3----------|
                    I lie awake....
e|------------------------------------------------------------------|
B|------------------------------------------------------------------|
G|------------------------------------------------------------------|
D|----------------------------3-----3-----5-------------------------|
A|----3-----3-----3-----3--1-----1-----3--------3-----3-----3-----3-|
E|-1-----1-----1-----1-----------------------1-----1-----1-----1----|

e|------------------------------------------------------------|
B|------------------------------------------------------------|
G|------------------------------------------------------------|
D|------------------------------------------------------------|
A|----3-----3-----3-----3-----5--3--3-----3-----3-----3-----3-|
E|-1-----1-----1-----1-----3-----------1-----1-----1-----1----|

e|------------------------------|
B|------------------------------|
G|------------------------------|
D|----3-----3-----5-------------|
A|-1-----1-----3--------3-----3-|
E|-------------------1-----1----|

Chorus
e|---------------------------------------------------------------------|
B|---------------------------------------------------------------------|
G|---------------------------------------------------------------------|
D|----------------------------3-----3----------------------------------|
A|----3-----3-----3-----3--1-----1--------3-----3-----3-----3-----3----|
E|-1-----1-----1-----1-----------------1-----1-----1-----1-----1-----1-|
  Cry Cry Cry...
e|---------------------------------------------------|
B|---------------------------------------------------|
G|---------------------------------------------------|
D|--------------------0-3-0--------------------------|
A|-------0--1-1-1-1---------------0-----0------3-----|
E|-1--3------------------------3----1-----3-1-----1--|

I know it's not 100% correct, but it's pretty close.
============================================================================

            
            
Suggest correction
Creating personal tab
Creating personal tab
You can edit any tab online and save it as your Personal.

You can edit, replace or remove any tab part or add personal notes – all changes will be seen only by you.

Personal tabs can be accessed anytime from any device, even offline.
Learn more »
comments
print report bad tab
1 comment total.
0 reply
lando108201 145 Jan 25, 2011 07:27 AM

intro dont sound right

guest
You may want to rate the tab now too:
select rating
Wanna post a correction for this tab? Suggest correction