Oops, an error
Loading. Please wait.

Folsom Prison Blues Tab

version 1
version 1

Solo

Interactive

159,687 views 420 this week
4 commentsread comments
1 2 3 4 5
x 53
add to favorites
launch autoscroll
font size
0
reset
how to read this tab
guitar tuner
Autoscroll
slow
fast
+/-
esc
set tempo
stop
Help us to improve Ultimate-Guitar.com Take our survey!
×
Author
Difficulty
novice
e ---7-9p7-10-7---7-9p7-10------7-9p7-10-7---7-9p7-10-7---|
B 8h9----------8h9-----------8h9----------8h9----------9--|
G ------------------------------------------------------9-|
D --------------------------------------------------------|
A --------------------------------------------------------|
E --------------------------------------------------------|

e 5---5----9---------0-0---------2--2---------------------------|
B 2-2--5-5--10-10----0-0---------0--0---------------------------|
G 2-2--6-6--9----9---1-1---------2--2---------------------------|
D -------------------2-2---------1--1---------------------------|
A -------------------2-2-0-1-2---2--2-2-2-1---------------------|
E -------------------0-0--------------------2b-0----------------|



************************************

| h  Hammer-on
| p  Pull-off
| b  Bend

************************************
Suggest correction
comments
print report bad tab
4 comments total. Showing first comments.
-1 reply
FL_Bob2002 500 Jul 28, 2015 12:38 PM

played okay till I got to the second part at 5 22 22. How the heck do you stretch your fingers that far?

0 reply
rofl4lfe 17 Sep 11, 2015 08:17 PM

what about "66" ahah

0 reply
frederikwatse1 10 Feb 13, 2016 06:34 AM

you use two fingers for that you place finger 1 on 22 and your pink on 5

guest
You may want to rate the tab now too:
select rating
Wanna post a correction for this tab? Suggest correction