Oops, an error
Loading. Please wait.

Folsom Prison Blues Bass Tab

version 2
version 2

Whole song

Interactive

36,730 views 168 this week
2 commentsread comments
1 2 3 4 5
accurate
x 21
add to favorites
launch autoscroll
font size
0
reset
guitar tuner
Autoscroll
slow
fast
+/-
esc
set tempo
stop
Help us to improve Ultimate-Guitar.com Take our survey!
×
Author
Difficulty
novice
-----------------------------------------------------------------------------
                             Folsom Prison Blues – Johnny Cash
-----------------------------------------------------------------------------
Tabbed by: Matt!!!

Key: A

Tuning:EADG

[Intro]

G|--------------------------|-------------------------------------------------|
D|------1-1-----------------|-------------------------------------------------|
A|-2-2-2----2---------2---2-|-------------------------------------------------|
E|------------2-0---0---0---|-------------------------------------------------|

 Verse and solo:
G|---------------------------------------------------------------------------|
D|------------------------------------2---2---2---2--------------------------|
A|---2---2---2---2---2---2---2------0---0---0---0-----2---2---2--2-----------|
E|-0---0---0---0---0---0---0----3-4-----------------0---0---0--0-------------|

G|----------------------------------------------||--------------------------|
D|---4---4---4---4----2---2---2---2------------o||--------------------------|
A|-2---2---2---2----0---0---0---0-----2---2----o||--------------------------|
E|----------------------------------0---0-------||--------------------------|

[Intro]
[Verse]
[Verse]
[Solo]
[Intro]
[Verse]
[Solo]

[Intro]
[Verse]

End with:
G|----------------------------------------------------------------------------|
D|------1-1-------------------------------------------------------------------|
A|-2-2-2----2-----------------------------------------------------------------|
E|------------2-0-------------------------------------------------------------|


Enjoy.
Suggest correction
comments
print report bad tab
2 comments total.
0 reply
Mattm182 61 wrote on May 28 2012, 08:08 am

on the walk up in the verse/ solo I absolutely meant for it to be:

 
E|-----------------------------------------------------------
A|-------------------------------------2---2---2---2---------
D|---2---2--2---2---2---2--2---2-----0---0---0---0-----2-----
G|-0--0---0--0---0---0---0---0----34-----------------0-------
And continue.
sorry about that folks, end result of multitasking while making a tab.

0 reply
shawn50 10 wrote on March 19 2015, 09:53 pm

based on a standard Blues progression of 1, 5 ... is this tab not in the Key of E? It says A... :)

guest
You may want to rate the tab now too:
select rating
Please do not post tabs as comments. Select "correction" instead!