Oops, an error
Loading. Please wait.

Folsom Prison Blues Bass Tab

version 3
version 3

Whole song

Interactive

244 views 18 this week
no commentswrite comment
1 2 3 4 5
3 more votes to show rating
add to favorites
launch autoscroll
font size
0
reset
guitar tuner
Autoscroll
slow
fast
+/-
esc
set tempo
stop
Help us to improve Ultimate-Guitar.com Take our survey!
×
Author
Difficulty
novice
About this tab version
I think mine is easy to follow. Was this info helpful? Yes No
  Intro:                         I
G|----------------|----------------|
D|----------------|----------------|
A|4-------4-------|----4-------4---|
E|----4-------4---|2-------2-------|

  Verse:
  hear    come    roll     bend     I       sun        I     when
G|----------------|----------------|----------------|----------------|
D|----------------|----------------|----------------|----------------|
A|----4-------4---|----4-------4---|----4-------4---|----4-------4---|
E|2-------2-------|2-------2-------|2-------2-------|2-------2-------|

G|----------------|----------------|----------------|----------------|
D|----------------|----------------|----------------|----------------|
A|2-------2-------|2-------2-------|----4-------4---|----4-------4---|
E|----2-------2---|----2-------2---|2-------2-------|2-------2-------|

                                                     Verse:
G|----------------|----------------|----------------|----------------|
D|----------------|----------------|----------------|----------------|
A|4-------4-------|4-------4-------|----4-------4---|----4-------4---|
E|----4-------4---|----4-------4---|2-------2-------|2-------2-------|

G|----------------|----------------|----------------|----------------|
D|----------------|----------------|----------------|----------------|
A|----4-------4---|----4-------4---|----4-------4---|2-------2-------|
E|2-------2-------|2-------2-------|2-------2-------|----2-------2---|

G|----------------|----------------|----------------|----------------|
D|----------------|----------------|----------------|----------------|
A|2-------2-------|----4-------4---|----4-------4---|4-------4-------|
E|----2-------2---|2-------2-------|2-------2-------|----4-------4---|

G|----------------|----------------|
D|----------------|----------------|
A|4-------4-------|----4-------4---|
E|----4-------4---|2-------2-------|

  Instrumental
G|----------------|----------------|----------------|----------------|
D|----------------|----------------|----------------|----------------|
A|----4-------4---|----4-------4---|----4-------4---|----4-------4---|
E|2-------2-------|2-------2-------|2-------2-------|2-------2-------|

G|----------------|----------------|----------------|----------------|
D|----------------|----------------|----------------|----------------|
A|2-------2-------|2-------2-------|----4-------4---|----4-------4---|
E|----2-------2---|----2-------2---|2-------2-------|2-------2-------|

G|----------------|----------------|----------------|
D|----------------|----------------|----------------|
A|4-------4-------|4---4---2-------|----4-------4---|
E|----4-------4---|------------4---|2-------2-------|

  Verse:
G|----------------|----------------|----------------|----------------|
D|----------------|----------------|----------------|----------------|
A|----4-------4---|----4-------4---|----4-------4---|----4-------4---|
E|2-------2-------|2-------2-------|2-------2-------|2-------2-------|

G|----------------|----------------|----------------|----------------|
D|----------------|----------------|----------------|----------------|
A|2-------2-------|2-------2-------|----4-------4---|----4-------4---|
E|----2-------2---|----2-------2---|2-------2-------|2-------2-------|

                                                     Instrumental
G|----------------|----------------|----------------|----------------|
D|----------------|----------------|----------------|----------------|
A|4-------4-------|4-------4-------|----4-------4---|----4-------4---|
E|----4-------4---|----4-------4---|2-------2-------|2-------2-------|

G|----------------|----------------|----------------|----------------|
D|----------------|----------------|----------------|----------------|
A|----4-------4---|----4-------4---|----4-------4---|2-------2-------|
E|2-------2-------|2-------2-------|2-------2-------|----2-------2---|

G|----------------|----------------|----------------|----------------|
D|----------------|----------------|----------------|----------------|
A|2-------2-------|----4-------4---|----4-------4---|4-------4-------|
E|----2-------2---|2-------2-------|2-------2-------|----4-------4---|

G|----------------|----------------|
D|----------------|----------------|
A|4---4---2-------|----4-------4---|
E|------------4---|2-------2-------|

  Verse:
G|----------------|----------------|----------------|----------------|
D|----------------|----------------|----------------|----------------|
A|----4-------4---|----4-------4---|----4-------4---|----4-------4---|
E|2-------2-------|2-------2-------|2-------2-------|2-------2-------|

G|----------------|----------------|----------------|----------------|
D|----------------|----------------|----------------|----------------|
A|2-------2-------|2-------2-------|----4-------4---|----4-------4---|
E|----2-------2---|----2-------2---|2-------2-------|2-------2-------|

G|----------------|----------------|----------------|----------------|
D|----------------|----------------|----------------|----------------|
A|4-------4-------|4-------4-------|----4-------4---|4---4---2-------|
E|----4-------4---|----4-------4---|2-------2-------|------------4---|

G|----------------|----------------|
D|----------------|----------------|
A|----------------|----------------|
E|2---------------|----------------|

It is common for old blues songs to use the I IV V chord progression.
This one does. When the first note of the bar is F# that's I, B is IV 
and C# is V. Typically it starts at I and ends up back there.

Suggest correction
Give kudos to tab author, rate the tab!
1 2 3 4 5
comments
print report bad tab
guest
You may want to rate the tab now too:
select rating
Wanna post a correction for this tab? Suggest correction