Oops, an error
Loading. Please wait.
We have Chord Pro version of Folsom Prison Blues.
It's the closest thing you can get to the original song and it has interactive parts. Check out the tab »
×
160,001 views 21 this week
4 commentsread comments
1 2 3 4 5
x 10
add to favorites
×
Save as Personal and add changes to this tab that will be seen only by you. Learn more ›
×
You can save this tab as Personal to edit and correct it or add notes. All changes will be seen only by you. Learn more »
launch autoscroll
font size
0
reset
how to read this tab
guitar tuner
backing track
0:00
0:00
edit
Autoscroll
slow
fast
+/-
esc
set tempo
stop
Words and Music by Johnny Cash
Arranged by Volcom4137
Transcribed by Volcom4137

Gtr I (E A D G B E) - 'Capo 1'
Gtr II (E A D G B E) - 'Capo 1'

 [Intro]
   H    E E E E   Q  Q  Q  Q
e|--------------|-------------|
B|--------------|-------------|
G|--------------|-------------|
D|--------------|-1--1--------|
A|--------2-2-2-|-------2-----|
E|--------------|----------3--|

   E S S E S S E S S E S S   E S S E S S E S S E S S     E S S E S S E S S E S S
e|---0-0---0-0---0-0---0-0-|---0-0---0-0---0-0---0-0-||----0-0---0-0---0-0---0-0-|
B|---0-0---0-0---0-0---0-0-|---0-0---0-0---0-0---0-0-||o---0-0---0-0---0-0---0-0-|
G|---1-1---1-1---1-1---1-1-|---1-1---1-1---1-1---1-1-||----1-1---1-1---1-1---1-1-|
D|---2-2---2-2---2-2---2-2-|---2-2---2-2---2-2---2-2-||----2-2---2-2---2-2---2-2-|
A|---2-2-2-2-2---2-2-2-2-2-|---2-2-2-2-2---2-2-2-2-2-||o---2-2-2-2-2---2-2-2-2-2-|
E|-0-----------0-----------|-0-----------0-----------||--0-----------0-----------|

   E S S E S S E S S E S S   E S S E S S E S S E S S
e|---0-0---0-0---0-0---0-0-|---0-0---0-0---0-0---0-0--|
B|---0-0---0-0---0-0---0-0-|---0-0---0-0---0-0---0-0--|
G|---1-1---1-1---1-1---1-1-|---1-1---1-1---1-1---1-1--|
D|---2-2---2-2---2-2---2-2-|---2-2---2-2---2-2---2-2--|
A|---2-2-2-2-2---2-2-2-2-2-|---2-2-2-2-2---2-2-2-2-2--|
E|-0-----------0-----------|-0-----------0------------|

   E S S E S S E S S E S S   E S S E S S E S S E S S
e|---0-0---0-0---0-0---0-0-|---0-0---0-0---0-0---0-0-|
B|---2-2---2-2---2-2---2-2-|---2-2---2-2---2-2---2-2-|
G|---2-2---2-2---2-2---2-2-|---2-2---2-2---2-2---2-2-|
D|---2-2---2-2---2-2---2-2-|---2-2---2-2---2-2---2-2-|
A|-0-----------0-----------|-0-----------0-----------|
E|-------0-----------0-----|-------0-----------0-----|

   E S S E S S E S S E S S   E S S E S S E S S E S S
e|---0-0---0-0---0-0---0-0-|---0-0---0-0---0-0---0-0----|
B|---0-0---0-0---0-0---0-0-|---0-0---0-0---0-0---0-0----|
G|---1-1---1-1---1-1---1-1-|---1-1---1-1---1-1---1-1----|
D|---2-2---2-2---2-2---2-2-|---2-2---2-2---2-2---2-2----|
A|---2-2-2-2-2---2-2-2-2-2-|---2-2-2-2-2---2-2-2-2-2----|
E|-0-----------0-----------|-0-----------0--------------|

   E S S E S S E S S E S S   E S S E S S E S S E S S
e|---2-2---2-2---2-2---2-2-|---2-2---2-2---2-2---2-2-|
B|---0-0---0-0---0-0---0-0-|---0-0---0-0---0-0---0-0-|
G|---2-2---2-2---2-2---2-2-|---2-2---2-2---2-2---2-2-|
D|---1-1---1-1---1-1---1-1-|---1-1---1-1---1-1---1-1-|
A|-2-----------2-----------|-2-----------2-----------|
E|-------2-----------2-----|-------2-----------2-----|

   1.
   E S S E S S E S S E S S   E S S E S S E S S E S S
e|---0-0---0-0---0-0---0-0-|---0-0---0-0---0-0---0-0-----||
B|---0-0---0-0---0-0---0-0-|---0-0---0-0---0-0---0-0----o||
G|---1-1---1-1---1-1---1-1-|---1-1---1-1---1-1---1-1-----||
D|---2-2---2-2---2-2---2-2-|---2-2---2-2---2-2---2-2-----||
A|---2-2-2-2-2---2-2-2-2-2-|---2-2-2-2-2---2-2-2-2-2----o||
E|-0-----------0-----------|-0-----------0---------------||

   2.
   E S S E S S E S S E S S   E S S  E S  S  E S S E S S
e|---0-0---0-0---0-0---0-0-|---0-0----0--0----0-0---0-0-|
B|---0-0---0-0---0-0---0-0-|---0-0----0--0----0-0---0-0-|
G|---1-1---1-1---1-1---1-1-|---1-1----1--1----1-1---1-1-|
D|---2-2---2-2---2-2---2-2-|---2-2----2--2----2-2---2-2-|
A|---2-2-2-2-2---2-2-2-2-2-|---2-2--2-2--2----2-2-2-2-2-|
E|-0-----------0-----------|-0--------------0-----------|
|
 | Gtr II
 | H           Q     E E     E E    E S  E.   Q     E
e|-------------------------|---7---10-7-10----7---------|
B|---------------------8---|-9----------------------8---|
G|-------------------------|----------------------------|
D|-------------------------|----------------------------|
A|-------------------------|----------------------------|
E|-------------------------|----------------------------|

   E S S  E S  S   E    S  S E S S
e|---0-0----0--0--------0--0---0-0--|
B|---0-0----0--0--------0--0---0-0--|
G|---1-1----1--1--------1--1---1-1--|
D|---2-2----2--2--------2--2---2-2--|
A|---2-2--2-2--2--------2--2-2-2-2--|
E|-0---------------0----------------|
|
 | E E    E S  S  +E   +Q      E
e|---7---10-7-10-(10)-(10)----------|
B|-9---------------------------8----|
G|----------------------------------|
D|----------------------------------|
A|----------------------------------|
E|----------------------------------|

   E S S  E S  S  E S S E S S   E S S  E S  S   E  S S E S S
e|---0-0----0--0----0-0---0-0-|---0-0----0--0------0-0---0-0-|
B|---0-0----0--0----0-0---0-0-|---0-0----0--0------0-0---0-0-|
G|---1-1----1--1----1-1---1-1-|---1-1----1--1------1-1---1-1-|
D|---2-2----2--2----2-2---2-2-|---2-2----2--2------2-2---2-2-|
A|---2-2--2-2--2----2-2-2-2-2-|---2-2--2-2--2------2-2-2-2-2-|
E|-0--------------0-----------|-0---------------0------------|
|
 | E E    E S  E.   Q     E     E E    E S  S  +E  E   E E
e|---7---10-7-10----7---------|---7---10-7-10-(10)-7---------|
B|-9----------------------8---|-9----------------------9-----|
G|----------------------------|--------------------------9---|
D|----------------------------|------------------------------|
A|----------------------------|------------------------------|
E|----------------------------|------------------------------|

   E S S E   S S E S S E   S S   E S S  E    S S E  S S E   S S
e|---0-0-----0-0---0-0-----0-0-|---0-0-------0-0----0-0-----0-0-|
B|---2-2-----2-2---2-2-----2-2-|---2-2-------2-2----2-2-----2-2-|
G|---2-2-----2-2---2-2-----2-2-|---2-2-------2-2----2-2-----2-2-|
D|---2-2-----2-2---2-2-----2-2-|---2-2-------2-2----2-2-----2-2-|
A|-0-------------0-------------|-0---------------0--------------|
E|-------0-------------0-------|--------0---------------0-------|
|
 | E S E   S E   E S E   S E     E S S +S  S E   E  S E   S E
e|-----5---5-5-------5---0-----|-----5-(5)-0----------9---0-----|
B|-----2---2-2-------2-----0---|---5---------0-----10-----------|
G|---2-------------2-----------|-6---------------9----------0---|
D|---2-------------2-----------|--------------------------------|
A|-0-------------0-------------|--------------------------------|
E|-----------------------------|--------------------------------|

   E S S E   S S E S S E   S S   E S S E   S S E S S E   S S
e|---0-0-----0-0---0-0-----0-0-|---0-0-----0-0---0-0-----0-0-|
B|---0-0-----0-0---0-0-----0-0-|---0-0-----0-0---0-0-----0-0-|
G|---1-1-----1-1---1-1-----1-1-|---1-1-----1-1---1-1-----1-1-|
D|---2-2-----2-2---2-2-----2-2-|---2-2-----2-2---2-2-----2-2-|
A|---2-2-2---2-2---2-2-2---2-2-|---2-2-2---2-2---2-2-2---2-2-|
E|-0-------------0-------------|-0-------------0-------------|
|
 | E S E   S E   E S E   S E     E S E   S E   E S E   S E
e|---------0-------------0-----|---------0---------0---0-----|
B|---0-0-----0-----0-0-----0---|---0-0-----0-----0-0---0-----|
G|---1-1-----------1-1---------|---1-1-----------1-1-----1---|
D|---2-2-----------2-2---------|---2-2-----------2-----------|
A|---2-2-----------2-2---------|---2-2-----------2-----------|
E|-0-------------0-------------|-0-------------0-------------|

   E S S E   S S E S S E   S S   E S S E S S E S S E    S  S
e|---2-2-----2-2---2-2-----2-2-|---2-2---2-2---2-2------2--2-|
B|---0-0-----0-0---0-0-----0-0-|---0-0---0-0---0-0------0--0-|
G|---2-2-----2-2---2-2-----2-2-|---2-2---2-2---2-2------2--2-|
D|---1-1-----1-1---1-1-----1-1-|---1-1---1-1---1-1------1--1-|
A|-2-------------2-------------|-2-----------2---------------|
E|-------2-------------2-------|-------2-----------2---------|
|
 | E S E   S E   E S E   S E     E E   E E   E E   E   +E
e|-----2---2-2-------2---2-2---|-----------------------------|
B|---0-0---0-0-----0-0---0-0---|-----------------------------|
G|---2-2---2-2-----2-2---2-2---|---2-----2-------------------|
D|---1-------------1-----------|---1-----1-----0-------------|
A|-2-------------2-------------|-2-----2-----1---------------|
E|-----------------------------|-------------------2b3r(2)---|

   E S S E S S E S S E S S   E S S E S S E S S E S S
e|---0-0---0-0---0-0---0-0-|---0-0---0-0---0-0---0-0--|
B|---0-0---0-0---0-0---0-0-|---0-0---0-0---0-0---0-0--|
G|---1-1---1-1---1-1---1-1-|---1-1---1-1---1-1---1-1--|
D|---2-2---2-2---2-2---2-2-|---2-2---2-2---2-2---2-2--|
A|---2-2-2-2-2---2-2-2-2-2-|---2-2-2-2-2---2-2-2-2-2--|
E|-0-----------0-----------|-0-----------0------------|
|
 | PM--------------------|
 | E S S E S S E S S E S S   W
e|-----------0-----------0-|--------------------------|
B|-----0---0-------0---0---|--------------------------|
G|-------------------------|--------------------------|
D|---2-----------2---------|--------------------------|
A|-------2-----------2-----|--------------------------|
E|-0-----------0-----------|--------------------------|

   E S S E S S E S S E S S   E S S E S S E S S E S S   E S S E S S E S S E S S
e|---0-0---0-0---0-0---0-0-|---0-0---0-0---0-0---0-0-|---0-0---0-0---0-0---0-0--|
B|---0-0---0-0---0-0---0-0-|---0-0---0-0---0-0---0-0-|---0-0---0-0---0-0---0-0--|
G|---1-1---1-1---1-1---1-1-|---1-1---1-1---1-1---1-1-|---1-1---1-1---1-1---1-1--|
D|---2-2---2-2---2-2---2-2-|---2-2---2-2---2-2---2-2-|---2-2---2-2---2-2---2-2--|
A|---2-2-2-2-2---2-2-2-2-2-|---2-2-2-2-2---2-2-2-2-2-|---2-2-2-2-2---2-2-2-2-2--|
E|-0-----------0-----------|-0-----------0-----------|-0-----------0------------|

   E S S E S S E S S E S S   E S S E S S E S S E S S
e|---0-0---0-0---0-0---0-0-|---0-0---0-0---0-0---0-0-|
B|---2-2---2-2---2-2---2-2-|---2-2---2-2---2-2---2-2-|
G|---2-2---2-2---2-2---2-2-|---2-2---2-2---2-2---2-2-|
D|---2-2---2-2---2-2---2-2-|---2-2---2-2---2-2---2-2-|
A|-0-----------0-----------|-0-----------0-----------|
E|-------0-----------0-----|-------0-----------0-----|

   E S S E S S E S S E S S   E S S E S S E S S E S S
e|---0-0---0-0---0-0---0-0-|---0-0---0-0---0-0---0-0----|
B|---0-0---0-0---0-0---0-0-|---0-0---0-0---0-0---0-0----|
G|---1-1---1-1---1-1---1-1-|---1-1---1-1---1-1---1-1----|
D|---2-2---2-2---2-2---2-2-|---2-2---2-2---2-2---2-2----|
A|---2-2-2-2-2---2-2-2-2-2-|---2-2-2-2-2---2-2-2-2-2----|
E|-0-----------0-----------|-0-----------0--------------|

   E S S E S S E S S E S S   E S S E S S E S S E S S
e|---2-2---2-2---2-2---2-2-|---2-2---2-2---2-2---2-2-|
B|---0-0---0-0---0-0---0-0-|---0-0---0-0---0-0---0-0-|
G|---2-2---2-2---2-2---2-2-|---2-2---2-2---2-2---2-2-|
D|---1-1---1-1---1-1---1-1-|---1-1---1-1---1-1---1-1-|
A|-2-----------2-----------|-2-----------2-----------|
E|-------2-----------2-----|-------2-----------2-----|

   E S S E S S E S S E S S   E S S E S S E S S E S S
e|---0-0---0-0---0-0---0-0-|---0-0---0-0---0-0---0-0----*|
B|---0-0---0-0---0-0---0-0-|---0-0---0-0---0-0---0-0----*|
G|---1-1---1-1---1-1---1-1-|---1-1---1-1---1-1---1-1----*|
D|---2-2---2-2---2-2---2-2-|---2-2---2-2---2-2---2-2----*|
A|---2-2-2-2-2---2-2-2-2-2-|---2-2-2-2-2---2-2-2-2-2----*|
E|-0-----------0-----------|-0-----------0--------------*|


************************************

| (n)  Ghost note
| b    Bend
| PM   Palm Mute

************************************

            
            
Suggest correction
Creating personal tab
Creating personal tab
You can edit any tab online and save it as your Personal.

You can edit, replace or remove any tab part or add personal notes – all changes will be seen only by you.

Personal tabs can be accessed anytime from any device, even offline.
Learn more »
comments
print report bad tab
4 comments total. Showing first comments.
+1 reply
matifan 31 Apr 09, 2010 08:09 AM

Far out. thats some really extensive stuff, too extensive, you coulda kept it simple....woulda been a lot easier.

-2 reply
questsiege 10 Jun 14, 2010 05:39 AM

I felt that after
"When I hear that whistle blowing, I hang my head and cry" that this sounds a bit better.

e-----8-11-8-11-8-----8-11-8-11-----------------------------
b-8-9-------------8-9---------------------------------------
g-----------------------------------------------------------
d-----------------------------------------------------------
b-----------------------------------------------------------
E-----------------------------------------------------------

0 reply
elcapitan1800 292 Oct 28, 2011 08:33 AM

@questsiege There is a capo on the first fret, so those are the actual notes. The tab is written with reference to the capo. Impressive tab

guest
You may want to rate the tab now too:
select rating
Wanna post a correction for this tab? Suggest correction