Oops, an error
Loading. Please wait.

Get Rhythm Bass Tab

version 2
version 2

Whole song

Interactive

4,201 views 1 this week
no commentswrite comment
1 2 3 4 5
2 more votes to show rating
add to favorites
launch autoscroll
font size
0
reset
guitar tuner
Autoscroll
slow
fast
+/-
esc
set tempo
stop
Help us to improve Ultimate-Guitar.com Take our survey!
×
Author
Difficulty
novice
----------------------------------------------------------------------------
			     Get Rhythm - Johnny Cash
----------------------------------------------------------------------------

Tabbed By : Bassface01
e-mail: guneagleluke@charter.net

This is my first tab, I'm pretty sure this is right or at least really close. Let me 
if anything seems wrong.


Tuning: Standard
Intro:
G|-------------------------------------------------------------------------|
D|-3-----------3-------------3-------------3-------------------------------|
A|-------3------------3-------------3--------------3-----------------------|
E|-------------------------------------------------------------------------|

G|-3--------------3--------------3-------------5---------------------------|
D|--------3---------------3-------------3------------3---------------------|
A|-------------------------------------------------------------------------|
E|-------------------------------------------------------------------------|

G|-------------------------------------------------------------------------|
D|-3-----------3-------------3-------------3-------------------------------|
A|-------3------------3-------------3--------------3-----------------------|
E|-------------------------------------------------------------------------|

G|-3--------------3--------------3--------------5--------------------------|
D|--------3---------------3-------------3--------------3---3-1-------------|
A|--------------------------------------------------------------3-1--------|
E|-------------------------------------------------------------------1-----|


Verse:
G|----------------------------------------------------------------------|
D|----------------------------------------------------------------------|
A|-----3----------3----------3-----------3---------------3----------3---| X3
E|-1--------1-----------1---------1--------------1------------1---------|
X3

Chorus:
G|-------------------------------------------------------------------------|
D|-3-----------3-------------3-------------3-------------------------------|
A|-------3------------3-------------3--------------3-----------------------|
E|-------------------------------------------------------------------------|

G|-3--------------3--------------3-------------5---------------------------|
D|--------3---------------3-------------3------------3---------------------|
A|-------------------------------------------------------------------------|
E|-------------------------------------------------------------------------|

G|-------------------------------------------------------------------------|
D|-3-----------3-------------3-------------3-------------------------------|
A|-------3------------3-------------3--------------3-----------------------|
E|-------------------------------------------------------------------------|

G|-3--------------3--------------3--------------5--------------------------|
D|--------3---------------3-------------3--------------3---3-1-------------|
A|--------------------------------------------------------------3-1--------|
E|-------------------------------------------------------------------1-----|

Play chorus during guitar solo

Ending
G|-------------------------------------------------------------------------|
D|-3-1---------------------------------------------------------------------|
A|------3-1----------------------------------------------------------------|
E|------------1----1-------------------------------------------------------|


| /  slide up
| \  slide down
| h  hammer-on
| p  pull-off
| ~  vibrato
| +  harmonic
| x  Mute note
============================================================================
Suggest correction
Give kudos to tab author, rate the tab!
1 2 3 4 5
comments
print report bad tab
guest
You may want to rate the tab now too:
select rating
Wanna post a correction for this tab? Suggest correction