Oops, an error
Loading. Please wait.

Ghost Riders In The Sky Tab

version 1
version 1

Whole song

Interactive

348,014 views 222 this week
20 commentsread comments
1 2 3 4 5
accurate
x 83
add to favorites
launch autoscroll
font size
0
reset
how to read this tab
guitar tuner
Autoscroll
slow
fast
+/-
esc
set tempo
stop
Help us to improve Ultimate-Guitar.com Take our survey!
×
Difficulty
novice
this is my first tab so cool it if it is slopy.

the whole song is played whith a pick.

e-------------------------------------------------------|
b-------------------------------------------------------|
g-------------------------------------------------------|
d--------------------------------------------0-2-22---2-|
a----0-00-2-3-33-0---------------0-00-2-3-33--------3---|
e--0---------------3-33-0-3----0------------------------|


e------------------------------------------------------|
b------------------------------------------------------|
g------2-2-22------------------------------------------|
d--2-2--------2-2-22-----------------------------------|
a--------------------3-0--------3-33----2/3-00---0-----|
e------------------------1-11-1----------------3-------|


e---------|
b---------|
g---------|
d--22-22--|             play over and over realy fast
a-0-------|             for as long as you want
e----0----|

writen by Logan Small,
age 13



************************************

| /  Slide up

************************************
Suggest correction
comments
print report bad tab
20 comments total. Showing first comments.
0 reply
Travis^Co 80 wrote on July 30 2006, 07:00 pm

Not in correct key, it's passable though.

0 reply
Zanther 10 wrote on February 19 2007, 11:35 pm

not exactly perfect, but I think you nailed it

+20 reply
kutlessman18 10 wrote on February 22 2007, 10:13 pm

pretty close man. but heres how my grandpa showed me how to play it and trust me he knows how to play the guitar:

e|---------------------------------------------------------|
b|---------------------------------------------------------|
g|---------------------------------------------------------|
d|-------------------------------------------0-2-22-0-2--2-|
a|---0-00-2-3-33-0--------------0-00-2--3-33---------------|
E|-0----------------3-33-0-3--0----------------------------|


|-------------------------------------------------0-----------------|
|-------------------------------------------------1-----------------|
|---2-22-0----------------------------------------2-----------------|
|-2--------2-22-0---------------------------------2-----------------|
|------------------3-33-0-------------3-33-0---0--0-----------------|
|-------------------------3--0h1-1-11--------3----0-----------------|

just a few missed notes but otherwise a great tab.

guest
You may want to rate the tab now too:
select rating
Please do not post tabs as comments. Select "correction" instead!