Oops, an error
Loading. Please wait.

Ghost Riders In The Sky tab

version 2
version 2

Whole song

Interactive

41,277 views 18 this week
12 commentsread comments
1 2 3 4 5
x 11
add to favorites
×
Save as Personal and add changes to this tab that will be seen only by you. Learn more ›
×
You can save this tab as Personal to edit and correct it or add notes. All changes will be seen only by you. Learn more »
launch autoscroll
font size
0
reset
how to read this tab
guitar tuner
edit
Autoscroll
slow
fast
+/-
esc
set tempo
stop
Difficulty
intermediate
-------------------------------------------------------------------------------          
       SONG NAME-Ghost Riders in the Sky
                 By various artists, this is how I play it.
           First tab, so i doubt timing is at all even close. Sorry
                          Played in E minor
-------------------------------------------------------------------------------
Tabbed by: Roy Bartlett
Email:bartlett76@netzero.net

Tuning: Standard
  Intro
e|------------------------------------------0------0------------------------|
B|------------1--------------3--------------5------5------------------------|
G|----------0--------------5--------------7---------------------------------|
D|--------2--------------4--------------6-----------------------------------|
A|--1-2-3----------3-4-5----------5-6-7-------------------------------------|
E|--------------------------------------------------------7\----------------|


e|--------------------------------------0-0---------0-0---------------------|
B|--------------------------------------0-0---------0-0---------------------|
G|--------------------------------------0-0---------0-0-----------0-0h2p0---|
D|--------------------------------------2-2---------2-2----2-222-4-------2--|
A|-2-2-2-2-2-2-2-2-2-2-2-2-2-2-2--------2-2---------2-2--2------------------|
E|0-3-0-3-0-3-0-3-0-3-0-3-0-3-0-3-2-0-0-0-0--2^p0-0-0-0---------------------|


e|-------------3-3---------3-3------------------------------0-0--------0-0---|
B|-------------0-0---------0-0-------------------0-0-0-0----0-0--------0-0---|
G -------------0-0---------0-0----------0-0h2p0-2-----0-----0-0--------0-0---|
D|0-0h2p0-0----0-0---------0-0---2-222-4--------------------2-2--------2-2---|
A|-------2-----2-2---------2-2--2---------------------------2-2--------2-2---|
E|-----------3-3-3-0-2-3-3-3-3----------------------------0-0-0-2^-0-0-0-0---|


e|-----0-0-000--------------------------------------------------------------|
B|-0-0--------0-0-000-0-------------------------------1---------------------|
G|----------------------2-0----------------0------0--0-----0---0-0----------|
D---------------------------2-2-0h2p0------------2--2------2---2-2-2-2-0-2--|
A|------------------------------------3-33------3------------------3-3-0-2--|
E|--------------------------------------------------------------------------|

e|---0-0----------0-0--  |
B|---0-0----------0-0-- .|
G|---0-0----------0-0--  |  Back to beginning, how ever many times you'd
D|---2-2----------2-2--  |  like, till your done, then do the ending.
A|---2-2----------2-2-- .|
E|-0-0-0--2^p0-0--0-0--  |

This is how i end the song..
e|------------------------------------------0------0------------------------|
B|------------1--------------3--------------5------5------------------------|
G|----------0--------------5--------------7---------------------------------|
D|--------2--------------4--------------6-----------------------------------|
A|--1-2-3----------3-4-5----------5-6-7-------------------------------------|
E|--------------------------------------------------------7\----------------|

e|-----------------------------------------0----0--|
B|-----------------------------------------0----0--|
G|-----------------------------------------0----1--|
D|-----------------------------------------2----2--|
A|-2-2-2-2-2-2-2-2-2-2-2-2-2-2-2-----------2----2--|
E|0-3-0-3-0-3-0-3-0-3-0-3-0-3-0-3-2-0------0----0--|
           Gradually slowing down....

| /  slide up
| \  slide down
| h  hammer-on
| p  pull-off
| ~  vibrato
| +  harmonic
| x  Mute note
  ^  bend half note
  ^^ bend whole note
===============================================================================

            
            
Suggest correction
Creating personal tab
Creating personal tab
You can edit any tab online and save it as your Personal.

You can edit, replace or remove any tab part or add personal notes – all changes will be seen only by you.

Personal tabs can be accessed anytime from any device, even offline.
Learn more »
comments
print report bad tab
12 comments total. Showing first comments.
+1 reply
ts34 10 Feb 03, 2008 06:51 AM

how is this even in the song and where?

+1 reply
gregman1069 10 Aug 09, 2008 03:31 PM

UH...yeah...er...mmmm...what the hell is this and what were you on when you did it???????? It's kind of a cross between Simple Man and death metal. I rate this...not so good. Sorry it doesn't have a good beat and I can't dance to it.

+1 reply
Aint-it-a-shame 10 Oct 19, 2008 03:02 PM

what the hell? this isn't even close.

guest
Wanna post a correction for this tab? Suggest correction