Oops, an error
Loading. Please wait.

Gods Gonna Cut You Down tab

version 1
version 1

Whole song

Interactive

88,110 views 30 this week
3 commentsread comments
1 2 3 4 5
x 12
add to favorites
×
Save as Personal and add changes to this tab that will be seen only by you. Learn more ›
×
You can save this tab as Personal to edit and correct it or add notes. All changes will be seen only by you. Learn more »
launch autoscroll
font size
0
reset
how to read this tab
guitar tuner
edit
Autoscroll
slow
fast
+/-
esc
set tempo
stop
Author
Difficulty
   Tabed by : Jamie T4yor



    There is no garante this is perfect it is my first tab an something
    that i have made up that i think sounds slightly right let me know what
    you think. 

    Capo - 1st fret

        
    E -----------------------------------------------------------------|
    B ----1----1----1----1----1----1----1----1----1----1----1----1----1|
    G ------2---------2---------2---------2---------2---------2--------|
    D --2--------2---------2---------2---------2---------2---------2---|
    A -----------------------------------------------------------------|
    E -----------------------------------------------------------------|

    Continue through Verses ^

   
    First part of the chorus (below lyrics) continue above tab!!!

    Go and tell that long tongue liar, 
    Go and tell that midnight rider,
    Tell the rambler, the gambler, the backbiter

    
    Second part of chorus (below lyrics) use tab above in time with lyrics,
    listen to the song to see what i mean.

    Tell the rambler, the gambler, the backbiter,
    Tell 'em that God's gonna cut 'em down.
    Tell 'em that God's gonna cut 'em down.


    E -------------------------------------------------------------------|
    B ---1---1---1---1---1---1---1---1---1---1---1-----------------------|
    G -------------------------------------------------------------------|
    D -------------------------------------------------------------------|
    A -3---0-------0---3---0-------0---0---0---0-------------------------|
    E ---------3---------------3-----------------------------------------|

    After this tab continue staright onto the Verse tab !!


Suggest correction
Creating personal tab
Creating personal tab
You can edit any tab online and save it as your Personal.

You can edit, replace or remove any tab part or add personal notes – all changes will be seen only by you.

Personal tabs can be accessed anytime from any device, even offline.
Learn more »
comments
print report bad tab
3 comments total.
+2 reply
Elephunks 10 Aug 12, 2008 02:52 AM

This tab is over simplified too extreme. I mean sure you got some of the notes right, but you left out the other 95% of what's in the song. For example, the first section you have listed is more like this (this actually doesn't come in until Cash starts singing at about 00:11):

e|----------------|----------------|----------------|----------------|
b|---1---1---1---1|---1---1---1---1|---1---1---1---1|---1---1---1---1|
G|--2---2---2---2-|--2---2---2---2-|--2---2---2---2-|--2---2---2---2-|
D|2-------2-------|2-------2-------|2-------2-------|2-------2-------|
A|----0-------0---|----0-------0---|----0-------0---|----0-------0---|
E|----------------|----------------|----------------|----------------|

0 reply
bradarnold 15 Apr 18, 2009 08:16 PM

sounds great nice work

0 reply
Jamie_t4ylor 41 Jun 17, 2009 07:07 AM

Cheers unlike the person above you...like i said it was only a simplistic version i come up with myself, i didnt say it was johnny cash's own tab..
plus i got my direction abit wrong what i ment is the second tab is for the second bit of lyrics but i imagin you got that anyway.

guest
You may want to rate the tab now too:
select rating
Wanna post a correction for this tab? Suggest correction