Oops, an error
Loading. Please wait.

Hey Porter tab

version 2
version 2

Whole song

6,247 views 6 this week
no commentswrite comment
1 2 3 4 5
2 more votes to show rating
add to favorites
×
Save as Personal and add changes to this tab that will be seen only by you. Learn more ›
×
You can save this tab as Personal to edit and correct it or add notes. All changes will be seen only by you. Learn more »
launch autoscroll
font size
0
reset
how to read this tab
guitar tuner
edit
Autoscroll
slow
fast
+/-
esc
set tempo
stop
Difficulty
Hey Porter is played with the low E tuned down a step to a D.  The song is sung in D, 
is a simple boom-chicka rhythm throughout.

D D D D
D D E7 A7
D D D G
G D A7 D

The following is a simple transcription of the guitar break.  Listen to the recording 
the rhythm.  The last finger motion is the E string (D string) bent from 2 to 3 and 
open.

E-----------2-2-2-2-------------------------2-2-2-1-0-0-0-------------------|
B-0-3-3-3-3---------3-3-3-0-3-----0-3-3-3-3---------------2-----------------|
G-----------------------------------------------------------2---------------|
D-------------------------------------------------------------------0-0-0-0-|
A---------------------------------------------------------------------------|
E---------------------------------------------------------------------------|

E---------------------------------------------------------------------------|
B---------------------------------------------------------------------------|
G---------------------------------------------------------------------------|
D-3-3-3-2-3-3-2-0---------0-0-0---------------------------------------------|
A-----------------2-----2-------2-0-2-0-2-0-2-0-----------------------------|
E-----------------------------------------------2^0-------------------------|

            
            
Suggest correction
Creating personal tab
Creating personal tab
You can edit any tab online and save it as your Personal.

You can edit, replace or remove any tab part or add personal notes – all changes will be seen only by you.

Personal tabs can be accessed anytime from any device, even offline.
Learn more »
Give kudos to tab author, rate the tab!
1 2 3 4 5
comments
print report bad tab
guest
Wanna post a correction for this tab? Suggest correction