Oops, an error
Loading. Please wait.

Hung My Head Bass Tab

6,761 views 1 this week
no commentswrite comment
1 2 3 4 5
please rate
add to favorites
launch autoscroll
font size
0
reset
guitar tuner
Autoscroll
slow
fast
+/-
esc
set tempo
stop
Help us to improve Ultimate-Guitar.com Take our survey!
×
Author
Difficulty
novice
Johnny Cash - Hung My Head
Tuning Standard G,D,A,E
Listen to song 4 timing

Verse
G|-------------------------------------------------------------------|
D|-------------------------------------------------------------------|
A|-3-----------------------------------------------------------------|
E|-------------------------1-----------5-----------------------------|
  
G|-------------------------------------------------------------------|
D|-------------------------------------------------------------------|
A|---------------------3---------------------------------------------|
E|----1---------------------------------1----------------------------|
  
G|-------------------------------------------------------------------|
D|-------------------------------------------------------------------|
A|--------------------------------------5----------------------------|
E|--5-----------------------1----------------------------------------|
 
G|-------------------------------------------------------------------|
D|------5------------------------------------------------------------|
A|-------------------------------------3-----------------------------|
E|-------------------------------------------------------------------|
  

G|-------------------------------------------------------------------|
D|-------------------------------------------------------------------|
A|-------------------------------------------------------------------|
E|------1-----------------------5------------------------------------|
 
G|-------------------------------------------------------------------|
D|-------------------3-----------------------------------------------|
A|---3---------------------------------------------------------------|
E|-------------------------------------------------------------------|
   same stuff over and over


Suggest correction
Give kudos to tab author, rate the tab!
1 2 3 4 5
comments
print report bad tab
guest
You may want to rate the tab now too:
select rating
Please do not post tabs as comments. Select "correction" instead!