Oops, an error
Loading. Please wait.
We have an official Hurt tab made by UG professional guitarists. Check out the tab »
×
73,974 views 33 this week
6 commentsread comments
1 2 3 4 5
x 21
add to favorites
×
Save as Personal and add changes to this tab that will be seen only by you. Learn more ›
×
You can save this tab as Personal to edit and correct it or add notes. All changes will be seen only by you. Learn more »
launch autoscroll
font size
0
reset
how to read this tab
guitar tuner
edit
Autoscroll
slow
fast
+/-
esc
set tempo
stop
Author
Difficulty
intermediate
Tuning: Standard

[Intro/Verse 1]
(4/4)
    Am                C       D
e|------0-----------|-----0-------2-----|
B|------1-----------|-----1-------3-----|
G|------2-----------|-----0-----2---2--o| (10x)
D|----2-------------|---2-----0--------o|
A|--0---------------|-3-----3-----------|
E|------------------|-------------------|
                   I  hurt myself
   today           To see if I still
   feel            I  focus on the 
   pain           The only thing that’s
   real           The needle tares a
   hole           The old familiar
   sting       Try to kill it all
   away      But I remember everything    

For the chorus, I added a note on the high e string on the third 
fret. It fills in for the piano in the background, or whatever 
that is… Just leave your pinky on that fret through all the chords. 
If you choose not to play it, just play the chords that I have labeled 
above each measure.

[Chorus]
(4/4)
   G                   Am                F                 C
e|-3---3---3---3----|--3---3---3---3---|-3---3---3---3---|-3---3---3---3---|
B|-3---3---3---3----|--1---1---1---1---|-1---1---1---1---|-1---1---1---1---|
G|-0---0---0---0----|--2---2---2---2---|-2---2---2---2---|-0---0---0---0---|
D|-0-0-0-0-0-0-0-0--|--2-2-2-2-2-2-2-2-|-3-3-3-3-3-3-3-3-|-2-2-2-2-2-2-2-2-|
A|-2---2---2---2----|--0---0---0---0---|-----------------|-3---3---3---3---|
E|-3---3---3---3----|------------------|-----------------|-----------------|
                       What have I become                      my sweetest

   G                   Am                F                 C
e|-3---3---3---3----|--3---3---3---3---|-3---3---3---3---|-3---3---3---3---|
B|-3---3---3---3----|--1---1---1---1---|-1---1---1---1---|-1---1---1---1---|
G|-0---0---0---0----|--2---2---2---2---|-2---2---2---2---|-0---0---0---0---|
D|-0-0-0-0-0-0-0-0--|--2-2-2-2-2-2-2-2-|-3-3-3-3-3-3-3-3-|-2-2-2-2-2-2-2-2-|
A|-2---2---2---2----|--0---0---0---0---|-----------------|-3---3---3---3---|
E|-3---3---3---3----|------------------|-----------------|-----------------|
   friend              E-very-one  I     know    goes away         in the            

   G                  Am                 F                 G
e|-3---3---3---3----|--3---3---3---3---|-3---3---3---3---|-3---3---3---3---|
B|-3---3---3---3----|--1---1---1---1---|-1---1---1---1---|-3---3---3---3---|
G|-0---0---0---0----|--2---2---2---2---|-2---2---2---2---|-0---0---0---0---|
D|-0-0-0-0-0-0-0-0--|--2-2-2-2-2-2-2-2-|-3-3-3-3-3-3-3-3-|-0-0-0-0-0-0-0-0-|
A|-2---2---2---2----|--0---0---0---0---|-----------------|-2---2---2---2---|
E|-3---3---3---3----|------------------|-----------------|-3---3---3---3---|
   end           And   you could have it all               My  em-pire of 

   G                  Am                 F                 G
e|-3---3---3---3----|--0---0---0---0---|-1---1---1---1---|-3---3---3---3---|
B|-3---3---3---3----|--1---1---1---1---|-1---1---1---1---|-3---3---3---3---|
G|-0---0---0---0----|--2---2---2---2---|-2---2---2---2---|-0---0---0---0---|
D|-0-0-0-0-0-0-0-0--|--2-2-2-2-2-2-2-2-|-3-3-3-3-3-3-3-3-|-0-0-0-0-0-0-0-0-|
A|-2---2---2---2----|--0---0---0---0---|-----------------|-2---2---2---2---|
E|-3---3---3---3----|------------------|-----------------|-3---3---3---3---|
  dirt                 I   will let you down               I   will make you

[Verse 2]
(4/4)
    Am                C       D
e|------0-----------|-----0-------2-----|
B|------1-----------|-----1-------3-----|
G|------2-----------|-----0-----2---2--o| (10x)
D|----2-------------|---2-----0--------o|
A|--0---------------|-3-----3-----------|
E|------------------|-------------------|
   hurt
                    I wear this crown of
 thorns             Upon my liar’s 
 chair                Full of broken
 thoughts             I can not 
 repair             Beneath the stains of
   time           The feelings 
disappear             You are some-one 
 else                 I am still right
 here

[Chorus]
(4/4)
   G                   Am                F                 C
e|-3---3---3---3----|--3---3---3---3---|-3---3---3---3---|-3---3---3---3---|
B|-3---3---3---3----|--1---1---1---1---|-1---1---1---1---|-1---1---1---1---|
G|-0---0---0---0----|--2---2---2---2---|-2---2---2---2---|-0---0---0---0---|
D|-0-0-0-0-0-0-0-0--|--2-2-2-2-2-2-2-2-|-3-3-3-3-3-3-3-3-|-2-2-2-2-2-2-2-2-|
A|-2---2---2---2----|--0---0---0---0---|-----------------|-3---3---3---3---|
E|-3---3---3---3----|------------------|-----------------|-----------------|
                       What have I become                      my sweetest 

   G                   Am                F                 C
e|-3---3---3---3----|--3---3---3---3---|-3---3---3---3---|-3---3---3---3---|
B|-3---3---3---3----|--1---1---1---1---|-1---1---1---1---|-1---1---1---1---|
G|-0---0---0---0----|--2---2---2---2---|-2---2---2---2---|-0---0---0---0---|
D|-0-0-0-0-0-0-0-0--|--2-2-2-2-2-2-2-2-|-3-3-3-3-3-3-3-3-|-2-2-2-2-2-2-2-2-|
A|-2---2---2---2----|--0---0---0---0---|-----------------|-3---3---3---3---|
E|-3---3---3---3----|------------------|-----------------|-----------------|
   Friend              E-very-one  I     know    goes away         In the            

   G                  Am                 F                 G
e|-3---3---3---3----|--3---3---3---3---|-3---3---3---3---|-3---3---3---3---|
B|-3---3---3---3----|--1---1---1---1---|-1---1---1---1---|-3---3---3---3---|
G|-0---0---0---0----|--2---2---2---2---|-2---2---2---2---|-0---0---0---0---|
D|-0-0-0-0-0-0-0-0--|--2-2-2-2-2-2-2-2-|-3-3-3-3-3-3-3-3-|-0-0-0-0-0-0-0-0-|
A|-2---2---2---2----|--0---0---0---0---|-----------------|-2---2---2---2---|
E|-3---3---3---3----|------------------|-----------------|-3---3---3---3---|
   end           And   you could have it all               My  em-pire of 

   G                  Am                 F                 G
e|-3---3---3---3----|--0---0---0---0---|-1---1---1---1---|-3---3---3---3---|
B|-3---3---3---3----|--1---1---1---1---|-1---1---1---1---|-3---3---3---3---|
G|-0---0---0---0----|--2---2---2---2---|-2---2---2---2---|-0---0---0---0---|
D|-0-0-0-0-0-0-0-0--|--2-2-2-2-2-2-2-2-|-3-3-3-3-3-3-3-3-|-0-0-0-0-0-0-0-0-|
A|-2---2---2---2----|--0---0---0---0---|-----------------|-2---2---2---2---|
E|-3---3---3---3----|------------------|-----------------|-3---3---3---3---|
   dirt                I   will let you down               I   will make you

   G                  Am                 F                 G
e|-3---3---3---3----|--0---0---0---0---|-1---1---1---1---|-3---3---3---3---|
B|-3---3---3---3----|--1---1---1---1---|-1---1---1---1---|-3---3---3---3---|
G|-0---0---0---0----|--2---2---2---2---|-2---2---2---2---|-0---0---0---0---|
D|-0-0-0-0-0-0-0-0--|--2-2-2-2-2-2-2-2-|-3-3-3-3-3-3-3-3-|-0-0-0-0-0-0-0-0-|
A|-2---2---2---2----|--0---0---0---0---|-----------------|-2---2---2---2---|
E|-3---3---3---3----|------------------|-----------------|-3---3---3---3---|
  hurt              If I could start  again              a million miles 

   G                  Am                 F                 G *let ring*
e|-3---3---3---3----|--0---0---0---0---|-1---1---1---1---|-3---------------|
B|-3---3---3---3----|--1---1---1---1---|-1---1---1---1---|-3---------------|
G|-0---0---0---0----|--2---2---2---2---|-2---2---2---2---|-0---------------|
D|-0-0-0-0-0-0-0-0--|--2-2-2-2-2-2-2-2-|-3-3-3-3-3-3-3-3-|-0---------------|
A|-2---2---2---2----|--0---0---0---0---|-----------------|-2---------------|
E|-3---3---3---3----|------------------|-----------------|-3---------------|
 away                  I would keep my-self                I would find a way

            
            
Suggest correction
Creating personal tab
Creating personal tab
You can edit any tab online and save it as your Personal.

You can edit, replace or remove any tab part or add personal notes – all changes will be seen only by you.

Personal tabs can be accessed anytime from any device, even offline.
Learn more »
comments
print report bad tab
6 comments total. Showing first comments.
0 reply
glass1024 10 Apr 28, 2007 06:17 PM

Not quite a 5 starer... but deece.

+1 reply
MarineBand 10 Sep 09, 2007 01:02 PM

good tab, best ive seen
i would keep the high g in all the chords of the chorus to cover for the piano chords
other than that, good job

0 reply
cflat 279 Jan 28, 2009 01:18 AM

I'm not positive I'm right here. But in the chorus, the second two phrases seem to be G, Am, F, G

Basically playing G instead of the C. Playing the C with the song just doesn't sound correct.

guest
You may want to rate the tab now too:
select rating
Wanna post a correction for this tab? Suggest correction