Oops, an error
Loading. Please wait.

I Walk The Line Bass Tab

version 1
version 1

Whole song

37,749 views 36 this week
no commentswrite comment
1 2 3 4 5
accurate
x 25
add to favorites
launch autoscroll
font size
0
reset
guitar tuner
Autoscroll
slow
fast
+/-
esc
set tempo
stop
Help us to improve Ultimate-Guitar.com Take our survey!
×
Contributor
Difficulty
novice
Ok here's the bass intro for "I Walk the Line".

G|--------------------------------------|
D|-------------------0-1---1-1-0------3-|
A|-----0-1----1-1-3------1-------3-1----|
E|-1-3-----1----------------------------|
 
G|-----------------------------------------------------|
D|-----------------------------------------------------|
A|-1-1-0------3-3---------3---3-1--0-----3---3---3---3-|
E|--------3-1------1-3-1----3--------3-1---1---1---1---|
comments
print report bad tab
I want to post or [tab]
guest
You may want to rate the tab now too:
select rating
Please do not post tabs as comments. Select "correction" instead!