Oops, an error
Loading. Please wait.

I Walk The Line Bass Tab

version 1
version 1

Intro

Whole song

75,721 views 120 this week
2 commentsread comments
1 2 3 4 5
x 30
add to favorites
launch autoscroll
font size
0
reset
guitar tuner
Autoscroll
slow
fast
+/-
esc
set tempo
stop
Help us to improve Ultimate-Guitar.com Take our survey!
×
Author
Difficulty
novice
-Johnny Cash, I Walk The Line-

This is an old song but it has a cool bass intro.

I'm pretty sure that this is 100%.


[Intro]

G|------------------------------------|
D|--------------------0---0-0---------|
A|-------0----0-0-2-4---0-----4-2-0---|
E|-0-2-4---0------------------------0-|

G|-------------------------------------------------------|
D|-------------------------------------------------------|
A|-0-0-------2-2------------2-2-2--0-------2---2---2---2-|
E|-----4-2-0--------0-2-0------------4-2-0---0---0---0---|
Suggest correction
comments
print report bad tab
2 comments total.
+1 reply
the Mrs. 31 Jun 24, 2008 10:11 PM

correct sound, wrong key.

-1 reply
oxypovijovi 10 Sep 11, 2010 07:32 PM

place a capo on 1st fret for correct sound

guest
You may want to rate the tab now too:
select rating
Wanna post a correction for this tab? Suggest correction